Stone Temple Pilots - No Way Out Chords & Tabs

 

No Way Out Chords & Tabs

Stone Temple Pilots Chords & Tabs

Version: 2 Type: Tab 0 ratings
1 star 2 stars 3 stars 4 stars 5 stars
comments

No Way Out Tab

   
Stone Temple Pilots 
Guitar Tablature Transcribed by Prodigidan (prodigidan@hotmail.com) 
"No Way Out" 
NOTE: Arranged for one guitar. 

Dropped C Tuning ( C G C F A D ) 

INTRO (light dist. w/ delay) 
[-----------------------------------------------------------------] 
[-------------7-------------------------------3-------------------] 
[---------0-------------------------------------------------------] 
[-----------------------------------------3-----------------------] 
[----/5------------------------------/1---------------------------] 
[-0-------------------------------0-------------------------------] 

[-----------------------------------------------------------------] 
[-------------7-----5-7-----------------------3-----1-------------] 
[---------0-------------------------------------------3-----------] 
[-----------------------------------------3-----------------------] 
[----/5------------------------------/1---------------------------] 
[-0-------------------------------0-------------------------------] 

[-----------------------------------------------------------------] 
[-------------7-------------------------------3-------------------] 
[---------0-------------------------------------------------------] 
[-----------------------------------------3-----------------------] 
[----/5------------------------------/1---------------------------] 
[-0-------------------------------0-------------------------------] 

[-----------------------------------------------------------------] 
[-------------7-------------------------------3-------------------] 
[---------0-------------------------------------------------------] 
[-----------------------------------------3-------------------0-0-] 
[----/5------------------------------/1-----------------------0-0-] 
[-0-------------------------------0---------------------------0-0-] 

|--- heavy dist. PRE-VERSE (heavy dist.) 
[-----------------------------------------------------------------] 
[-------------3---------------------------------------------------] 
[-------------x---------------------------------------------------] 
[-3-----------3---------------0-0-3-----------3---------------0-0-] 
[-3-----------3---------------0-0-3-----------3---------------0-0-] 
[-3-----------3---------------0-0-3-----------3---------------0-0-] 
[ Tab from: http://www.guitartabs.cc/tabs/s/stone_temple_pilots/no_way_out_tab_ver_2.html ]
[-----------------------------------------------------------------] 
[-------------3-------------------------------3-------------------] 
[-------------x-------------------------------x-------------------] 
[-3-----------3---------------0-0-3-----------3-------------------] 
[-3-----------3---------------0-0-3-----------3-------------------] 
[-3-----------3---------------0-0-3-----------3-------------------] 

VERSE H H 
[------------------|-|-----------------------------|-|------------] 
[------------------|-|-----------------------------|-|------------] 
[------------------|-|------------7----------------|-|------------] 
[-------------7-(7)/-\(7)---7-----7-----------7-(7)/-\(7)---7-----] 
[-0-----------5-(5)/-\(5)---0-----0-----------5-(5)/-\(5)---0-----] 
[-0-----------0-------------0-----0-----------0-------------0-----] 

repeat PRE-CHORUS 

[-----------------------------------------------------------------] 
[-----------------------------------------------------------------] 
[-----------------------------------------------------------------] 
[-3-----------3---------------0-0-3-----------3---------------0-0-] 
[-3-----------3---------------0-0-3-----------3---------------0-0-] 
[-3-----------3---------------0-0-3-----------3---------------0-0-] 

VERSE VARIATION (FIRST) H 
[------------------|-|------------] 
[------------------|-|------------] 
[------------------|-|------------] 
[-----x-x-x---7-(7)/-\(7)---7-----] 
[-0---x-x-x---5-(5)/-\(5)---0-----] 
[-0---x-x-x---0-------------0-----] 

VERSE VARIATION (SECOND & THIRD) H 
[------------------|-|------------] 
[-------6-6--------|-|------------] 
[-------x-x--------|-|------------] 
[-----x-x-x---7-(7)/-\(7)---7-----] 
[-0---x-x-x---5-(5)/-\(5)---0-----] 
[-0---x-x-x---0-------------0-----] 

CHORUS 
[-----------------------------------------------------------------] 
[-----------------------------------------------------------------] 
[-----------------------------------------------------------------] 
[-5-3-3---3---5-3-3---3---5-3-3---5-3-3---3---5-3-3---3-----------] 
[-5-3-3---3---5-3-3---3---5-3-3---5-3-3---3---5-3-3---3-----------] 
[-5-3-3---3---5-3-3---3---5-3-3---5-3-3---3---5-3-3---3-----------] 


[-----------------------------------------------------------------] 
[-----------------------------------------------------------------] 
[-----------------------------------------------------------------] 
[-5-3-3---3---5-3-3---3---5-3-3---5-3-3---3---5-3-3---3---5-3-3---] 
[-5-3-3---3---5-3-3---3---5-3-3---5-3-3---3---5-3-3---3---5-3-3---] 
[-5-3-3---3---5-3-3---3---5-3-3---5-3-3---3---5-3-3---3---5-3-3---]
Comments