Stone Temple Pilots - No Way Out Chords & Tabs

 

No Way Out Chords & Tabs

Stone Temple Pilots Chords & Tabs

Version: 1 Type: Tab 0 ratings
1 star 2 stars 3 stars 4 stars 5 stars
comments

No Way Out Tab

   
Stone Temple Pilots Guitar Tablature
"No Way Out"
Transcribed by Daisuke Hinata (hinabon@aurora.dti.ne.jp)
2000/11/21

Drop D Tuning

(Intro)
   Cmaj    Gmin
E |-------------------------------------------|
B |------5-------------------5b---------------|
G |----5-------------------5------------------|
D |--5---------6-10------5----------6-10-8-6--|
A |3---------6---------3----------6-----------|
D |--------6--------------------6-------------|

(Bridge)
   D   Eó
E |-----------|
B |--------4--|
G |--------3--|
D |----1------|
A |0-0-1------|
D |0-0-1------|
[ Tab from: http://www.guitartabs.cc/tabs/s/stone_temple_pilots/no_way_out_tab.html ]
(Verse)
   Cmaj
E |-----------------|
B |-----------------|
G |5--5b---5-5-x-5--|
D |5--5b---5-5-x-5--|
A |3--3----3-3-x-3--|
D |-----------------|

(Chorus)
E |-------------------------------------------|
B |-------------------------------------------|
G |-------------------------------------------|
D |-------------------------------------------|
A |3p1-1-1--3p1-1-1--3p1-1--3p1-1-1--3p1-1-1--|
D |3p1-1-1--3p1-1-1--3p1-1--3p1-1-1--3p1-1-1--|

(End)
   Cmaj                Gmin
E |----------------------------------------|
B |xx-5-5-5----5-5-xx--xx-4-4-4----4-4-xx--|
G |xx-5-5-5----5-5-xx--xx-5-5-5----5-5-xx--|
D |xx-5-5-5----5-5-xx--xx-6-6-6----6-6-xx--|
A |xx-3-3-3----3-3-xx--xx-6-6-6----6-6-xx--|
D |----------------------------------------|
Comments