Stone Temple Pilots - Lady Picture Show Chords & Tabs

 

Lady Picture Show Chords & Tabs

Stone Temple Pilots Chords & Tabs

Version: 1 Type: Tab 0 ratings
1 star 2 stars 3 stars 4 stars 5 stars
comments

Lady Picture Show Tab

   
Artist: Stone Temple Pilots
Song: Lady Picture Show 
Tabbed by: John Leadman

I got this off the internet and as you can see it is not complete but enough

[ Tab from: http://www.guitartabs.cc/tabs/s/stone_temple_pilots/lady_picture_show_tab.html ]
     E  D# C# B A2            then the occasional replacement of D for A2..
     
e|---7--6--4--2-0-                  e|----5----
b|---7--6--4--2-0-                  b|----5----
g|---9--8--6--4-2-                  g|----7----
d|---9--8--6--4-2-                  d|----7----
a|---7--6--4--2-0-                  a|----5----
E|---X--X--X--X-X-                  E|----X----

And the Chorus - "she doesn't know her name.."
I'm still not sure about this.. sounds matching playing along with the music.
   G# C# F# B     Repeat chords as needed for chorus. At end of chorus,         
e|-4--4--2--2--   to start verse again, end not on B, but on E at 7.
b|-4--4--2--2--
g|-5--6--3--4--
d|-6--6--4--4--
a|-6--4--4--2--
E|-4--X--2--X--



Comments