Stone Temple Pilots - Lady Picture Show Chords & Tabs

 

Lady Picture Show Chords & Tabs

Stone Temple Pilots Chords & Tabs

Version: 2 Type: Bass Tab 0 ratings
1 star 2 stars 3 stars 4 stars 5 stars
comments

Lady Picture Show Bass Tab

Here is the bass tab for Lady Picture Show by the Stone Temple Pilots-

Normal tuning (GDAE)

I watched them play this song on Leno.  It is close to correct.
The only riff I'm positive is right is main riff 1.  The others are very
close, but may be just a note or two off.

Main riff 1-
G:-----------------------------------
D:-----------------------------------
A:--7----6----4--2-------------------
E:-------------------5----4----2--0--

Main riff 2-
G:--------------------------------------------
D:--------------------------------------------
A:--7----6----4--2------------------------4---
E:-------------------5-5--5-5--5-5--0-4h5---h5
                                   |   fast   |

Chorus-
G:-------------------------------------------------
D:-------------------------------------------------
A:---------------------6-----------------------7---
E:--7-7--7-7--7-7--6-7---8--9-9--9-9--9-9--8-9---10
                  | fast  |               |  fast  |
[ Tab from: http://www.guitartabs.cc/tabs/s/stone_temple_pilots/lady_picture_show_btab_ver_2.html ]
G:--------------------------------------------
D:--------------------------------------------
A:---------------------6----------------------
E:--7-7--7-7--7-7--6-7---8--9-9--9-9--7-7--7-7
                  | fast  |

G:--------------------------------------------------
D:--------------------------------------------------
A:---------------------7------------------------7---
E:--9-9--9-9--9-9--8-9---10--9-9--9-9--9-9--8-9---10
                  | fast   |               | fast   |

G:------------------------
D:------------------------
A:---------------------6--
E:--7-7--7-7--7-7--6-7---8
                  | fast  |

Guitar solo-
G:---------------------------
D:---------------------------
A:-----------------------7---
E:--9---9-9-9-9---9--8-9---10
                    | fast   |
Play this a few times.


Then at the end of the solo-
G:------------------------------------------------------------
D:------------------------------------------------------------
A:------------------------------------------------------------
E:--9-9--9-9--9-9--9-9--7-7--7-7--7-7--7h9---9-9--9-9--9-9---9

That's it.  Like I said, the whole may not be right, but it's very close.

                                      ---Eric Browne
                                         (Koa@Yosemite.net)


Comments