Stone Temple Pilots - Lady Pictue Show Complete Chords & Tabs

 

Lady Pictue Show Complete Chords & Tabs

Stone Temple Pilots Chords & Tabs

Version: 1 Type: Chords 0 ratings
1 star 2 stars 3 stars 4 stars 5 stars
comments

Lady Pictue Show Complete Chords

   
stone Temple Pilots - Lady Picture Show 
(You have to figure out the timing but this is pretty accurate)
Tabbed by Dracula

Intro

   E   B      A                   D (X 5)
E:----------------------------------------------
B:-5---4--44----2--2-----5--4--4--3-------------
G:-4---4--44----2--2-----4--4--4--2-------------
D:-6---4--44--2-2--2-----6--4--4--4-------------
A:------------0---------------------------------
E:----------------------------------------------

vERSE:
E B BB A (Same as first part of intro)


Chorus:

C#7 F#m B7 E G#7

Solo:
Amaj7  A6 (x4)  E  C#m  F#  G#  A  B (Again you get to figure out the timing)

Now here's the actual solo: (R stands for release, so you'll be bending and releasing, h stands for hammeron and p stands for
pulloff)
[ Tab from: http://www.guitartabs.cc/tabs/s/stone_temple_pilots/lady_pictue_show_complete_crd.html ]
E:------------------------------------------------------------------------------------------------------------
B:------------------------12(13)r---14-14-12--10h12p10p9-10-9-7-9-9(10)r--7h9p7----7-7------------------------
G:----------------11(12)r--------------------------------------------------------9------9-11(13)-11(13)-11(13)
D:--------9(10)r----------------------------------------------------------------------------------------------
A:-7(8)r------------------------------------------------------------------------------------------------------
E:------------------------------------------------------------------------------------------------------------


E:-12----12----12----12----12----12----12----12----12----12----12----12---12----12----12----12----12
B:----16----14----12----14----12----14----16----12----16----14----12----14---12----14----16----12---
G:-------------------------------------------------------------------------------------------------- 
D:-------------------------------------------------------------------------------------------------- 
A:--------------------------------------------------------------------------------------------------
E:--------------------------------------------------------------------------------------------------

E:---9----------9--------------------------------12--14(16)rp12--------------------------------------
B:-9---9-12(14)---12-9-9-9-12-9---------------12-----------------14----------------------------------
G:------------------------------11(13)r-9--13------------------------12------------------------------
D:--------------------------------------------------------------------------------------------------- 
A:--------------------------------------------------------------------------------------------------- 
E:---------------------------------------------------------------------------------------------------

*If the bends don't sound right when you play this then change them cause I wasn't sure about them when I made this.


        
Comments