Stone Temple Pilots - Kitchenware And Candy Bars Acoustic Chords & Tabs

 

Kitchenware And Candy Bars Acoustic Chords & Tabs

Stone Temple Pilots Chords & Tabs

Version: 1 Type: Tab 1 rating
1 star 2 stars 3 stars 4 stars 5 stars
comments

Kitchenware And Candy Bars Acoustic Tab

   
Hello there this is a tab which i've worked out to sound pretty good on acoustic not sure if the pilots ever 
played it acousticly but i think it sounds pretty fudgin good!! Timings on the chords aint entirely
perfect but here goes!!

KITCHENWARE AND CANDY BARS

MAIN RIFF: (INTRO/VERSE)

e-------------------------------------------------------------------------
B-------------------------------------------------------------------------
G----------0-0---------0-0--------0---------------------------------------
D----------5-5---------5-5--------4---------------------------------------
A-------------------------------------------------------------------------
E---0-0-----------0-0--------0-0------------------------------------------

Somebody told me, I know where to go
somebody showed me, i was last to know
Sell me down the river
Sell me down the river

CHORUS:


    C     D (TYPE 2)         END ON D IN SLASHES

e---0--¦--0--¦--R----¦--0-0-0-0-0-0--------------------------------------------
B---1--¦--3--¦--E----¦--3-3-3-3-3-3--------------------------------------------
G---0--¦--0--¦--P-X3-¦--0-0-0-0-0-0--------------------------------------------
D---2--¦--4--¦--E-X3-¦--4-4-4-4-4-4--------------------------------------------
A---3--¦--5--¦--A----¦--5-5-5-5-5-5--------------------------------------------                  
E------¦-----¦--T----¦---------------------------------------------------------

What i wanted, was was what we wanted,
what i wanted, was what we wanted

VERSE 2 (WITH MAIN RIFF)
[ Tab from: http://www.guitartabs.cc/tabs/s/stone_temple_pilots/kitchenware_and_candy_bars_acoustic_tab.html ]
Unfriendly reasons, down on wounded knees
Unfriendly feelings, some blind mothers need
sell me down the river
sell me down the river

REPEAT CHORUS

CODA                                                             (CANT PLAY BARRE CHORDS?)
                                                                 
     A     G                     F                 E (LET RING)   A  G   Fmaj7
e----5--¦--3--¦--R------¦-----¦--1-1-1-1-1-1-1-1-¦-0-----------¦--0--3---0-------------------
B----5--¦--3--¦--E------¦--T--¦--1-1-1-1-1-1-1-1-¦-0-----------¦--2-(3)--1--------------------
G----6--¦--4--¦--P--X3--¦--H--¦--2-2-2-2-2-2-2-2-¦-1-----------¦--2--0---2-------------------
D----7--¦--5--¦--E--X3--¦--E--¦--3-3-3-3-3-3-3-3-¦-2-----------¦--2--0---3-------------------
A----7--¦--5--¦--A------¦--N--¦--3-3-3-3-3-3-3-3-¦-2-----------¦--0--2---3-------------------
E----5--¦--3--¦--T------¦-----¦--1-1-1-1-1-1-1-1-¦-0-----------¦-----3---------------------

You read the words and they sell you lies,                       (SOUNDS MORE MELODIC ANYWAY)
They sell there lies but its alright

I LIKE TO END WITH THE MAIN RIFF BUT TRY ADDING THIS VARIATION:

-------------------------------------------------------------------
-------------------------------------------------------------------
------0-0-----0-0-----0-0-----0-0----------------------------------
------2-2-----4-4-----5-5-----7-7----------------------------------
-------------------------------------------------------------------
-0-0------0-0------0-0-----0-0-------------------------------------

(just makes things a little more interesting on stage)

Any comments, questions or abuse will be responded accordingly if you e mail dabrez83@hotmail.com

			
Comments