Stone Temple Pilots - Interstate Love Song Chords & Tabs

 

Interstate Love Song Chords & Tabs

Stone Temple Pilots Chords & Tabs

Version: 9 Type: Tab 0 ratings
1 star 2 stars 3 stars 4 stars 5 stars
comments

Interstate Love Song Tab

-------------------------------------------------------------------------------
Interstate Love Song – Stone Temple Pilots
-------------------------------------------------------------------------------

Artist: Stone Temple Pilots
Song: Interstate Love Song
Tabbed by: Guitarist426 - Brent

There are way too many wrong tabs of this song on the net, and that’s not to say this 
tab is 100% correct… but it’s a hell of a lot closer than any others!  Email me at 
Guitarplyr426ap@cs.com for comments or corrections.

Standard Tuning – EBGDAE
For correct timing just listen to the song.  I did this tab in Microsoft Word so I 
sure hope it doesn’t come out fucked up, but you never know.

Intro Solo
e|---------------------------------------------------------------------------|
B|-------------------------------------------------------4~-4b5r4------------|
G|-4/6~~~~~~~--4--4/6\4-----------------------------5~~------------4/6~~~----|
D|-----------------------6~~~--6\4~-----------4/6~~--------------------------|
A|----------------------------------/7~~--7----------------------------------|
E|---------------------------------------------------------------------------|

Riff 1
e|--0----0----0-----0-------0------------------------------------------------|
B|--2b3--3r2--0-----------0--------------------------------------------------|
G|---------------2----1h2------1-2--1---1--1--1--1------------------------x2-|
D|-----------------------------2-4--2---2--2--2--2—--------------------------|
A|-----------------------------2-4--2---2--2--2--2---------------------------|
E|-------------------------------------figure out the strumming on your own--|

				\__________________/x2

[ Tab from: http://www.guitartabs.cc/tabs/s/stone_temple_pilots/interstate_love_song_tab_ver_9.html ]
Verse-  I don’t know the names for all of these chords, deal with it they are tough.  You   should be able to figure out the strumming on your own it is definitely not hard.
e|--4-4--------3-3----------------------------------------------------0------|
B|--5-5--------4-4-------------2-2--------------------------2-2-------0------|
G|--6-6--------5-5-------------1-1--------------------------1-1-------2------|
D|--6-6--------6-6-------------3-3--------------------------2-2-------2------|
A|--4-4--------3-3-------------1-1--------------------------1-1-------0------|
E|---------------------------------------------------------------------------|
   Waitin…   On a Sunday…    For what I read between the lines  your lies
(the words change but the tab doesn’t, for anyone who cant hear that.)

e|-----------------------------------|<~~End of verse
B|-----------------------------------|
G|--1-2--1---1--1--1--1--------------|  Go through verse again and then through riff
D|--2-4--2---2--2--2--2-x2-----------|  1 once.  (I really shouldn’t need to tell
A|--2-4--2---2--2--2--2--------------|  anyone this but oh well.)
E|-----------------------------------|

Chorus-  The chords used are C#m E A Ab A E A Ab A E…I’ll tab them out anyways
e|--4------------0--------------------0----------4------0-----------------0--|
B|--5------------0--------------------2----------4------2-----------------0--|
G|--6------------1--------------------2----------5------2-----------------1--|
D|--6------------2--------------------2----------6------2-----------------2--|
A|--4------------2--------------------0----------6------0-----------------2--|
E|-----------------------------------------------4---------------------------|
  Leavin on a southern train only yesterday you lied…promises of what I seemed



e|-------------0----------------4----0-----------------------0---------------|
B|-------------2----------------4----2-----------------------0---------------|
G|-------------2----------------5----2-----------------------1---------------|
D|-------------2----------------6----2-----------------------2---------------|
A|-------------0----------------6----0-----------------------2---------------|
E|------------------------------4--------------------------------------------|
 to be only watched the time go by… All of these things you said to me…


Finish the song out by playing:

Riff 1

Verse adding an “A” chord  when he pauses to say “good-bye” (just listen you’ll see 
what I mean)

Chorus

Riff 1 once

That’s about it I guess….email me if you have questions or comments.  The chords are 
tough at first.  I don’t think I have forgotten anything…but if I did then you should 
be able to figure it out with this.

~Keep Rockin’ - Brent
Comments