Stone Temple Pilots - Interstate Love Song Chords & Tabs

 

Interstate Love Song Chords & Tabs

Stone Temple Pilots Chords & Tabs

Version: 7 Type: Tab 0 ratings
1 star 2 stars 3 stars 4 stars 5 stars
comments

Interstate Love Song Tab

   
Interstate Love Song
Stone Temple Pilots

Intro
E--------------------------------
B--------------------------------
G4b-6ó6-4---4b6---4--------------
D--------------------------6-----
A--------------------------------
E--------------------------------

E--------------------------------------------
B---------------------------4---4b5ó4---2----
G------------------1-----5-------------------
D---2b4---2---2------------------------------
A--------------------------------------------
E--------------------------------------------

E--------------------------------------0--
B-------2b3---2-----0---------------0-----
G-------------------------2----1b2--------
D-----------------------------------------
A-----------------------------------------
E-----------------------------------------
[ Tab from: http://www.guitartabs.cc/tabs/s/stone_temple_pilots/interstate_love_song_tab_ver_7.html ]
Verse 
C#5	 
Waiting
C5 
On a Sunday afternoon
B5                                       Bb5
For what I read between the lines
A5
Your lies
E

Verse 2
Feelin 
Like a hand in rusted shame
So do you laugh or does it cry?
Reply

Chorus
C#5
Leavin 
           E5
On a southern train
              A5      Ab5
Only yesterday you lied,
    A5                         E5
Promises of what I seemed to be
            A5                    Ab5
Only watched the time go by!
             A5                       E
All of these things you said to me

Intro

Verse3
Breathing 
Is the hardest thing to do 
With all Iíve said and
All that's dead for you,
You lied- good-bye

Leavin 
On a southern train
Only yesterday you lied,
Promises of what I seemed to be
Only watched the time go by!
All of these things I said to you

Intro
E
Comments