Stone Temple Pilots - Hollywood Bitch Chords & Tabs

 

Hollywood Bitch Chords & Tabs

Stone Temple Pilots Chords & Tabs

Version: 3 Type: Tab 0 ratings
1 star 2 stars 3 stars 4 stars 5 stars
comments

Hollywood Bitch Tab

#----------------------------------PLEASE NOTE---------------------------------#
#This file is the author's own work and represents their interpretation of the #
#song. You may only use this file for private study, scholarship, or research. #
#------------------------------------------------------------------------------#

Song: Hollywood Bitch
By: Stone Temple Pilots
Tabbed by: conart_cry@yahoo.com

Off the album; Shangri-La-De-Da

Intro:
E|-----------------------------------------------------------
B|-----------------------------------------------------------
G|-----------------------------------------------------x2----
D|-1-1-2-3--5~~~~~~~---1-1-2-3--5--5~~~----------------------
A|-0-0-1-2-------------0-0-1-2-------------------------------
E|---------------------------------------5-5-3--0~~~---------
[ Tab from: http://www.guitartabs.cc/tabs/s/stone_temple_pilots/hollywood_bitch_tab_ver_3.html ]
Verses: It follows the vocals very closely, I'll do my best
Voc.Ryth 1
E|---------------------------------------------------------
B|---------------------------------------------------------
G|---------------------------------------------------------
D|--7-7-6-5-5--7-6-5---7---7-7-6-5---7---7-6-5-5---5-6-7---
A|--7-7-6-5-5--7-6-5---7---7-7-6-5---7---7-6-5-5---5-6-7---
E|--5-5-4-3-3--5-4-3-0-5---5-5-4-3-0-5---5-4-3-3-0-3-4-5---

Pre-Chorus:
Rythm.Fig 1
E|--------------------------------------------------------------------
B|-----------------13---------------------8---------------------------
G|---------7-7--9--12-------------7-7--9--9----------7-7--9--9--4-4---
D|--9-7-9--7-7--9--10------9-7-7--7-7--9-10---9-7-9--7-7--9-10--5-5---
A|--9-9-9--x-x--7--10------9-9-9--x-x--7-10---9-9-9--x-x--7-10--5-5---
E|--7-7-7--7-7-------------7-7-7--7-7-----8---7-7-7--7-7-----8--3-3---

Chorus:
E|--------------------------------0-0-0-------
B|-4-4-0--4-4-0--4-4-0-0---0-0-0--2-2-2-------
G|-4-4-1--4-4-1--4-4-1-1---4-4-4--2-2-2-------
D|-4-4-2--4-4-2--4-4-2-2---5-5-5--2-2-2-------
A|-2-2-2--2-2-2--2-2-2-2---5-5-5--0-0-0-------
E|-----0------0------0-0-/-3-3-3--------------
Comments