Stone Temple Pilots - Hollywood Bitch Chords & Tabs

 

Hollywood Bitch Chords & Tabs

Stone Temple Pilots Chords & Tabs

Version: 2 Type: Tab 1 rating
1 star 2 stars 3 stars 4 stars 5 stars
comments

Hollywood Bitch Tab

   
Song: Hollywood Bitch
Words & Music by: Stone Temple Pilots
Tabbed by Conart_cry@yahoo.com

INTRO:
E|--------------------|-----------------------|
B|--------------------|-----------------------|
G|--------------------|-----------------------|  X2
D|--2-2-2-/-5~~~~~~~--|--2-2-2--5~~~-2-2------|
A|--0-1-2-------------|--0-1-2-------0-0------|
E|--------------------|-------------------3-0-|
 |Bass
G|--------------------|-----------------------|
D|--------------------|-----------------------|
A|--------------------|-----------------------|  X2
E|--5-6-7-/-3~~~~~~~--|--5-6-7-/-3~~-5-5--3-0-|

VERSE: 
   P.M Throughout
E|--------------------------------|---------------------------------------|
B|--------------------------------|---------------------------------------|
G|--------------------------------|---------------------------------------|
D|--7-7-6-5-5-----7-7-6-5---5-6-7-|-7-7-6-5---7-7-6-5---7-7-6-5---5-6-7-7-|
A|--7-7-6-5-5-----7-7-6-5---5-6-7-|-7-7-6-5---7-7-6-5---7-7-6-5---5-6-7-7-|
E|--5-5-4-3-3-0-3-5-5-4-3-0-3-4-5-|-5-5-4-3-0-5-5-4-3-0-5-5-4-3-0-3-4-5-5-|
 |
G|--------------------------------|---------------------------------------|
D|--------------------------------|---------------------------------------|
A|--------------------------------|---------------------------------------|
E|--5-5-4-3-3-0-3-5-5-4-3-0-3-4-5-|-5-5-4-3-0-5-5-4-3-0-5-5-4-3-0-3-4-5-5-|

   She's on the westside, she's looking thin she brings a picture of what
   she'll never be       So          kill to kill

[ Tab from: http://www.guitartabs.cc/tabs/s/stone_temple_pilots/hollywood_bitch_tab_ver_2.html ]
PRE-CHORUS:                     1 & 3|                                  2|
E|--------------12-12-(12)-----------|--------------12-12-(12)-----------|
B|---------7-7--9--9--(9)--13-13-13--|---------7-7--9--9--(9)--13-13-13--|
G|---------7-7--9--9--(9)--12-12-12--|---------7-7--9--9--(9)--12-12-12--|
D|--9-7-9--7-7--9--9--(9)--10-10-10--|--9-7-9--7-7--9--9--(9)--10-12-12--|
A|--9-9-9--x-x-------------10-10-10--|--9-9-9--x-x-------------10-12-12--|
E|--7-7-7--7-7-----------------------|--7-7-7--7-7-----------------------|
 |     
G|-----------------------------------|-----------------------------------|
D|----------------------------17-----|-----------------------------------|
A|--------------7-7---/----15----15--|-------------------/-----3--3------|
E|--7-5-7-/10-/----------------------|--7-5-7-/10-\-0-0------------------|

                                          4|
E|--------------12-12-(12)-----------------|
B|---------7-7--9--9--(9)--13-13-----------|
G|---------7-7--9--9--(9)--12-12---4-4-4-4-|
D|--9-7-9--7-7--9--9--(9)--10-10---5-5-5-5-|
A|--9-9-9--x-x-------------10-10---5-5-5-5-|
E|--7-7-7--7-7---------------------3-3-3-3-|
 |
G|----------------------------5------------|
D|--------------------------5---5----------|
A|--------------------/-3-3-------5--------|
E|--7-5-7-/10-\-0--0----------------3-3-3-3|

CHORUS:
E|-----------------|-----------------|--------------------|
B|---4---4---0-----|---4---4---0-----|----4---4-----0-----|
G|---4---4---1-----|---4---4---1-----|----4---4-----1-----|
D|---4---4---2-----|---4---4---2-----|----4---4-----2-----|
A|---2---2---2-----|---2---2---2-----|----2---2-----2-----|
E|-----------0-----|-----------0-----|--------------0-----|
 |
G|-----------------|-----------------|--------------------|
D|-----------------|-----------------|--------------------|
A|--2---2-/--7-5-7-|---2---2-/-7-5-7-|----2---2--/--7-5-7-|
E|-----------------|-----------------|--------------------|


   Rock star life    turn of the switch  Hollywood  Bitch

E|------------------------------------------|
B|-(0)--3--3----3--3--/--5--5----5--5-------|
G|-(1)--4--4----4--4--/--6--6----6--6-------|
D|-(2)--5--5----5--5--/--7--7----7--7-------|
A|-(2)--5--5----5--5--/--7--7----7--7-------|
E|-(0)--3--3----3--3--/--5--5----5--5-------|
 |
G|------------------------------------------|
D|------------------------------------------|
A|-(7)/-10-10-10-10---/--12-12-12-12-12-----|
E|------------------------------------------|
                          (A)
   So fake that it seems real She goes Again
Comments