Stone Temple Pilots - Hello Its Late Chords & Tabs

 

Hello Its Late Chords & Tabs

Stone Temple Pilots Chords & Tabs

Version: 1 Type: Tab 0 ratings
1 star 2 stars 3 stars 4 stars 5 stars
comments

Hello Its Late Tab

   
Song: Hello It's Late
Words & Music by: Stone Temple Pilots
Tabbed by Conart_cry@yahoo.com

This is off the "Thank You" DVD, wish I could do the bass, but no time :(
INTRO: (I like to do this little hammer-on to start)
          E
E|------|-0-0-0-0-0-0------|-0-0-0-0-0-0-0--|
B|------|-0-0-0-0-0-0------|-0-0-0-0-0-0-0--|
G|------|-1-1-1-1-1-1------|-1-1-1-1-1-1-1--|  X 2
D|--0h1-|-2-2-2-2-2-2--0h1-|-2-2-2-2-2-2-2--|
A|------|-2-2-2-2-2-2------|-2-2-2-2-2-2-2--|
E|------|-0-0-0-0-0-0------|-0-0-0-0-0-0-0--|

VERSE: Although I'am not 100% sure about the chords (Or some of it's names)
I'm sure a correct version will show it's head in the future!

    G      A(sus2)7 C6     Em   x2

E|------------------0-0----------|
B|--3-3----0-0------0-0----0-0---|
G|--0-0----0-0------0-0----0-0---|
D|--0-0----2-2------x-x----x-x---|
A|--2-2----4-4------3-3----2-2---|
E|--3-3--------------------------|


   G                         2             3               Em
   Hello (Hello, hello) It's Late, another time to start again. Did you
   read about it? Did you   hear about it?


CHORUS:

     A               B           x2| C                D               x2|
E|---0---0---0---0---0---0---0---0-|-0---0---0---0----0----0---0---0----|
B|---0---0---0---0---0---0---0---0-|-0---0---0---0----0----0---0---0----|
G|---6---6---6---6---8---8---8---8-|-9---9---9---9----11---11--11--11---|
D|---7---7---7---7---9---9---9---9-|-10--10--10--10---12---12--12--12---|
A|---7---7---7---7---9---9---9---9-|-10--10--10--10---12---12--12--12---|
E|---5---5---5---5---7---7---7---7-|-8---8---8---8----10---10--10--10---|
           Nothing   matters again |But I'm sitting on this merry go-
 I didn't think we'd last that long|
ETC.........
[ Tab from: http://www.guitartabs.cc/tabs/s/stone_temple_pilots/hello_its_late_tab.html ]
E|----------------------------|----------------------------|---
B|--5--5--5--5--5--3--3--3--3-|--5--5--5--5--5--3--3--3--3-|-3-
G|--5--5--5--5--5--4--4--4--4-|--5--5--5--5--5--4--4--4--4-|-4-
D|--5--5--5--5--5--5--5--5--5-|--5--5--5--5--5--5--5--5--5-|-5-
A|--3--3--3--3--3--5--5--5--5-|--3--3--3--3--3--5--5--5--5-|-5-
E|-----------------3--3--3--3-|-----------------3--3--3--3-|-3-
                                                           | Mary....(Back to intro
   It's just a game that we.....                           |          chords)

SOLO:Use verse chords
                                                     P.H
E|-----------------------------------|-----------------------------------|
B|---------10---------12-------------|-----------10---------10-12b(14)-12|
G|-12b(14)----12b(14)-----10-12------|-----10-12----12b-/12--------------|
D|------------------------------12\--|-/12-------------------------------|
A|-----------------------------------|-----------------------------------|
E|-----------------------------------|-----------------------------------|


     (Strike both notes while still bent)
E|---15--15--15--15--15------------15|--------------------------15-------|
B|-/-15b(17)-15--15--15--15b(17)15---|-15----------15-15b(17)15----15----|
G|-----------------------------------|-----14b(16)-----------------------|
D|-----------------------------------|-----------------------------------|
A|-----------------------------------|-----------------------------------|
E|-----------------------------------|-----------------------------------|

E|--------13-------------10----------|-------------7------12b(14)12--9---------|
B|-13b(15)---13--12b(14)----10-------|----9-9b(11)----9----------------12-9----|
G|-----------------------------9~~~--|-/9------------------------------------9-|
D|-----------------------------------|-----------------------------------------|
A|-----------------------------------|-----------------------------------------|
E|-----------------------------------|-----------------------------------------|

Then after the solo go to the Csus4 notes, "But I'm just sitting on this merry-go,..."
Comments