Stone Temple Pilots - Heaven And Hot Rods Chords & Tabs

 

Heaven And Hot Rods Chords & Tabs

Stone Temple Pilots Chords & Tabs

Version: 2 Type: Bass Tab 0 ratings
1 star 2 stars 3 stars 4 stars 5 stars
comments

Heaven And Hot Rods Bass Tab

Stone Temple Pilots: Heaven and Hot Rods

Tabbed by Paul Fivey, pfivey@yahoo.co.uk

This is just a quick outline of the main parts of the song, 
done by request.  I haven't go a clue about the bridge right now, 
but I'll try to put it in later.

Drop D tuning (If you don't know what that is, you've no chance with this riff!)
[ Tab from: http://www.guitartabs.cc/tabs/s/stone_temple_pilots/heaven_and_hot_rods_btab_ver_2.html ]
G----------------------------------------------------------------------------------
D----------------------------------------------------------------------------------
A----------------3-4-5---5---------------------------------------------------------
D--7---5-6-7---7-----------7-6-5---5-2-1-0---0-5-6-7---7-2-1-0---0-5-6-7---7-0-7-0-

This is a bitch to play, especially if you try to play it all on the 4th string instead
as I know some people like to!

I've broken it up so you can follow it a bit more easily, but its all played with the same
length of note.

The chorus may be something of a relief:

G-------------------------
D-------------------------
A--5-5--------------------
D----------7-6-5----5-4-3-

Play this twice.

All I can remember of the bridge is that it starts on B then moves to Bflat then goes somewhere.
Comments