Stone Temple Pilots - Down Chords & Tabs

 

Down Chords & Tabs

Stone Temple Pilots Chords & Tabs

Version: 5 Type: Tab 0 ratings
1 star 2 stars 3 stars 4 stars 5 stars
comments

Down Tab

   
Artist            : STP
Album             : 
Song              : Down

Transcribed by    : R Belmont
Date              : 02-18-2002
E-mail            : 
URL               : 

Note              : 
Tuning            : drop d


[Intro]
e|----------------------|-----------------------------------
B|----------------------|-----------------------------------
G|----------------------|-------------------------repeat----
D|3-0-0--0-3-0-0----(4x)|-6-7-10--7-6-3--(4x)---------------
A|3-0-0--0-3-0-0--------|-6-7-10--7-6-3---------------------
E|3-0-0--0-3-0-0--------|-6-7-10--7-6-3---------------------

[ Tab from: http://www.guitartabs.cc/tabs/s/stone_temple_pilots/down_tab_ver_5.html ]
[]
e|-------------------|--------------------------------------
B|-------------------|--------------------------------------
G|-------------------|--------------------------------------
D|7-6-5-4-3----------|-10-12-12-0---whole thing twice ------
A|7-6-5-4-3----------|-10-12-12-0---------------------------
E|7-6-5-4-3--(slowly) -10-12-12-0---------------------------


[]
e|10-9-8-7-6-5-4-3------------------------------------------
B|10-9-8-7-6-5-4-3------------------------------------------
G|10-9-8-7-6-5-4-3------------------------------------------
D|-----------------------------Intro-(4x)-------------------
A|----------------------------------------------------------
E|----------------------------------------------------------
Comments