Stone Temple Pilots - Down Chords & Tabs

 

Down Chords & Tabs

Stone Temple Pilots Chords & Tabs

Version: 4 Type: Tab 0 ratings
1 star 2 stars 3 stars 4 stars 5 stars
comments

Down Tab

"Down" 
   Stone Temple Pilots 
   No. 4 
   Tabbed by: Erick 
   Drop D Tuning 
   INTRO 
   E---------------------------------------------------------------------- 
   B---------------------------------------------------------------------- 
   G---------------------------------------------------------------------- 
   D--3--0--0------3--0--0-----3--0--0------3--0---7\5-------------------- 
   A--3--0--0------3--0--0-----3--0--0------3--0---X---------------------- 
   D--3--0--0----0-3--0--0-----3--0--0----0-3--0---7\5-------------------- 

   Main Riff 
   E---------------------------------------------------------------------- 
   B---------------------------------------------------------------------- 
   G---------------------------------------------------------------------- 
   D--3--0--0------3--0--0-----3--0--0------3--0--0----0--3--0------------ 
   A--3--0--0------3--0--0-----3--0--0------3--0--0----0--3--0------------ 
   D--3--0--0----0-3--0--0-----3--0--0----0-3--0--0----0--3--0------------ 

   Figure 1 
   E---------------------------------------------------------------------- 
   B---------------------------------------------------------------------- 
   G---------------------------------------------------------------------- 
   D--6--7--10----6--5--3--0--0--0--0--3--0----------------Do this 4 times 
   A--6--7--10----6--5--3--0--0--0--0--3--0------------------------------- 
   D--6--7--10----6--5--3--0--0--0--0--3--0------------------------------- 


   VERSE 
   E---------------------------------------------------------------------- 
   B---------------------------------------------------------------------- 
   G---------------------------------------------------------------------- 
   D--3--0--0-----3--0----0----------------------------------------------- 
   A--3--0--0-----3--0----0----------------------------------------------- 
   D--3--0--0---0-3--0----0----------------------------------------------- 
   Pleased to meet you. ____________ 
   Do this until Pre-Chorus 
[ Tab from: http://www.guitartabs.cc/tabs/s/stone_temple_pilots/down_tab_ver_4.html ]
   PRE-CHORUS Harm:------------- 
   E----------------------------------------------------------------------- 
   B----------------------------------------------------------------------- 
   G----------------------------------------------------------------------- 
   D--3--0--0--X--X--3--0---0--------------------------Do this until Chorus 
   A--3--0--0--X--X--3--0---0---------------------------------------------- 
   D--3--0--0--X--X--3--0---0------5---4----2.7---------------------------- 
   I've been waiting 

   CHORUS IS Figure 1 

   BRIDGE Do this 2 times 
   E----------------------------------------------------------------------- 
   B----------------------------------------------------------------------- 
   G-----------------------------5/7--7--7-----------5/7--7--7-------5/7--7 
   D--7---6---5---4----2/3\2-0---5/7--7--7-----------5/7--7--7-------5/7--7 
   A--7---6---5---4----2/3\2-0---3/5--5--5-----------3/5--5--5-------3/5--5 
   D--7---6---5---4----2/3\2-0---------------0---0------------0---0-------- 
   Will you follow me______ down now down now? 

   PRE-SOLO 
   E----------------------------------------------------------------------- 
   B----------------------------------------------------------------------- 
   G----------------------------------------------------------------------- 
   D---10---9---8---7---6--6--4---4---------------------------------------- 
   A---10---9---8---7---6--6--4---4---------------------------------------- 
   D---10---9---8---7---6--6--4---4---------------------------------------- 
   Will you follow______ me down?______________________ 

   SOLO 
   ??????????????? 

   OUTRO 

   Play Main Riff 4 times then 
   slower 
   E-----------------0--1--0------------1/3\1------------------------------ 
   B--------------------------3---(3)---3/5\3--------0--------------------- 
   G------------------------------------2/4\2------------------------------ 
   D---------0------------------------------------------------------------- 
   A---------0------------------------------------------------------------- 
   D--0---0--0------------------------------------------------------------- 
   let ring---------------------------------------------------l 

   Listen to the CD for some parts, and buy the CD twice. 
Comments