Stone Temple Pilots - Down Chords & Tabs

 

Down Chords & Tabs

Stone Temple Pilots Chords & Tabs

Version: 2 Type: Tab 0 ratings
1 star 2 stars 3 stars 4 stars 5 stars
comments

Down Tab

This is the first song off of "No.4"

STP: Down

There are basically only a few riffs.

First, use Dropped D tuning (EBGDAD)

Intro Riff/Verse Riff
-------------------------------------
-------------------------------------
-------------------------------------
-3-0-0-0--3-0-0-0b-------------------
-3-0-0-0--3-0-0-0b-------------------
-3-0-0-0--3-0-0-0b-------------------
This is repeated for  a bit, then its this riff:
[ Tab from: http://www.guitartabs.cc/tabs/s/stone_temple_pilots/down_tab_ver_2.html ]
-------------------------------------
-------------------------------------
-------------------------------------
12/5-7-10-5-7-3-0-0-0-0-0-0-0-0------
---5-7-10-5-7-3-0-0-0-0-0-0-0-0------
---5-7-10-5-7-3-0-0-0-0-0-0-0-0------
This is only played the first time.  
Repeat the next riff for a while:

---------------------------------------
---------------------------------------
---------------------------------------
-5-7-5-7-10-5-7-3-0-0-0-0-0-0-0-0------
-5-7-5-7-10-5-7-3-0-0-0-0-0-0-0-0------
-5-7-5-7-10-5-7-3-0-0-0-0-0-0-0-0------

Repeat the intro verse during the verse.
Here is that little thing you here after 
the intro riff (Listen to the CD and play.
You will understand)

-------------------------------------
-------------------------------------
-------------------------5-----------
-(3-0-0-0--3-0-0-0)----4-------------
-(3-0-0-0--3-0-0-0)-3/5--------------
-(3-0-0-0--3-0-0-0)------------------

Theres some stuff, like the solo, I left out.
If anyone finds it out, please post it.
Comments