Stone Temple Pilots - Down Chords & Tabs

 

Down Chords & Tabs

Stone Temple Pilots Chords & Tabs

Version: 1 Type: Tab 0 ratings
1 star 2 stars 3 stars 4 stars 5 stars
comments

Down Tab

   
Tabbed by Liam Connolly

This song is in Dropped D.

Intro riff: 

E----------------
B----------------
G----------------
D-3-0-0-0-3-0-0-0
A-3-0-0-0-3-0-0-0
D-3-0-0-0-3-0-0-0

After the vocals come in, the guitar plays this instead:
[ Tab from: http://www.guitartabs.cc/tabs/s/stone_temple_pilots/down_tab.html ]
E--------------------
B--------------------
G-------------------5
D-3-0-0-0-3-0-----4--
A-3-0-0-0-3-0--/5----
D-3-0-0-0-3-0--------

The other riff is:

E--------------------
B--------------------
G--------------------
D-5-7-10-7-5-3-0-0-0-
A-5-7-10-7-5-3-0-0-0-
D-5-7-10-7-5-3-0-0-0-

Thats it, except the solo. Figure it out yourself, because you
should be able to. 
Comments