Stone Temple Pilots - Dancing Days Chords & Tabs

 

Dancing Days Chords & Tabs

Stone Temple Pilots Chords & Tabs

Version: 1 Type: Tab 0 ratings
1 star 2 stars 3 stars 4 stars 5 stars
comments

Dancing Days Tab

   
Trancripted by www.mikesguitarsite.co.uk

A tribute to Led Zeppelin


Gtr I (D G D G B D) - 'Dean DeLeo - Rhythm steel string acoustic'
Gtr II (D G D G B D) - 'Dean DeLeo - Rhythm steel string acoustic'
Gtr III (D G D G B D) - 'Dean DeLeo - Lead / Rhythm w/dist'
Gtr IV (D G D G B D) - 'Dean DeLeo - Lead steel string acoustic'
Gtr V (D G D G B D) - 'Dean DeLeo - Rhythm steel string acoustic'
Gtr VI (D G D G B D) - 'Synth horns arr. for gtr'

Intro
  Q=117
 4/4
  Gtr I
                                             |-3-|
  E  E E   +E      E   E E E E E E   +E  E E S S S  E  E Q    Wx4
|--------|-------------------------|------------------------|--------|
|------2-|-(2)h====3-------7s5---2-|-(2)h3-2-3p2p0--7s=5----|--------|
|-0----0-|-(0)-------------------0-|-(0)---0-0--------------|--------|
|-0--3-0-|-(0)---------3p0-7s5-0-0-|-(0)---0--------7s=5----|--------|
|-0--3-0-|-(0)---------3p0-0-----0-|-(0)---0-------(0)------|--------|
|--------|-------------------------|------------------------|--------|
|
|        Gtr II
| Q.        S   S  S S Q   H          W                       Wx4
|--------|------2h=3p2-------------|------------------------|--------|
|--------|-----(0)-----------------|------------------------|--------|
|--------|-------------------------|------------------------|--------|
|--------|-------------------------|------------------------|--------|
|--------|-------------------------|------------------------|--------|
|--------|-------------------------|------------------------|--------|


              Slower Q=112
                          |-3-|                   |-3-|
  H    Q  E E     +E  E E S S S E E E E   +E  E E S S S E E E E
|-------------||------------------------|-----------------------|
|-----------2-||o-(2)h3-2-2h3p2p0-----2-|-(2)h3-2-2h3p2p0-----2-|
|-----------0-||--(0)---0-0-------0---0-|-(0)---0-0-------0---0-|
|-----------0-||--(0)---0---------0-3-0-|-(0)---0---------0-3-0-|
|-----------0-||o-(0)---0---------0-3-0-|-(0)---0---------0-3-0-|
|-------------||------------------------|-----------------------|


                         1.                         2.
          |-3-|                   |-3-|                       |-3--|
  +E  E E S S S Q   E E   +E  E E S S S E E E E      +E  E E  S  S S E E E  E
|-----------------------|------------------------||---------------------------||
|-(2)h3-2-2h3p2-------2-|-(2)h3-2-2h3p2p0-----2-o||--(2)h3-2--2h=3p2p0-----/5-||
|-(0)---0-0-----------0-|-(0)---0-0-----------0--||--(0)---0-(0)-------0---/5-||
|-(0)---0-0-----------0-|-(0)---0---------0-3-0--||--(0)---0-(0)-------0-3-/5-||
|-(0)-----------------0-|-(0)---0---------0-3-0-o||--(0)---0-----------0-3-/5-||
|-----------------------|------------------------||---------------------------||
|
| Gtr III
|  H            E E Q      W                          W
|-----------------------|------------------------||---------------------------||
|---------------7s5-----|-----------------------o||---------------------------||
|-----------------------|------------------------||---------------------------||
|---------------7s5-----|------------------------||---------------------------||
|-----------------------|-----------------------o||---------------------------||
|-----------------------|------------------------||---------------------------||
|-Fill 1     end Fill 1-|

   Verse 1
    +E  E E E  E   E  E  E    +E  E E E E E E  E
||--------------------------|--------------------|
||o-(5)---6---(6)-(5)---(8)-|-(8)---8---8-6---/6-|
||--(5)---5----5---5-----8--|-(8)---8---8-6---/5-|
||--(5)-5-5----5---5-----8--|-(8)-6-8---8-6---/5-|
||o-(5)-5-5----5---5-----6--|-(6)-6-------6---/5-|
||--------------------------|--------------------|
 |-Rhy Fig 1


  +E  E E E E E     E E   +E  E E E E E E E
|-----------------------|---------------------||
|-(6)---6-5-6-5-------5-|-(5)-------------6--o||
|-(5)---5-5-5-5-----5-5-|-(5)---------5---5---||
|-(5)-5-5-5-5-5-----5-5-|-(5)-5-7---5-7---5---||
|-(5)-5---5-5-5-----5-5-|-(5)-5-5---5-5---5--o||
|-----------------------|---------------------||
|                               end Rhy Fig 1-|
|Gtr V
|                          ~~~
|             |-3-|
|  H        E S S S E E   +H.           Q
|-----------3-3h5p3p2-2-|-(2)-----------------||
|-----------------------|--------------------o||
|-----------------------|---------------------||
|-----------------------|---------------------||
|-----------------------|--------------------o||
|-----------------------|---------------------||
|-Fill 2                           end Fill 2-|

   Chorus
    +E  E E E E E E E   +E  E E E E E E E
||------------------5-|-(5)-------5-------|
||o-(6)---6---6-5---5-|-(5)-3-5---5-----3-|
||--(5)---5---5-5---5-|-(5)-3-5---5-3-x-2-|
||--(5)-5-5---5-5---5-|-(5)-3-5---3-3-x-2-|
||o-(5)-5-5---5-5-x-3-|-(3)-3-----3-3---2-|
||--------------------|-------------------|
 |-Rhy Fig 2

|-w/Fill 2
  +E  E E E E E  E  E   +E  E E E E E E E
|-----2-------------2-|-(2)-----------------||
|-(3)-2-3-2---------2-|-(2)-------------6--o||
|-(2)-2-2-2-2-2-----2-|-(2)-------------5---||
|-(2)-2-2-0-2-2-----2-|-(2)-2-3---2-3-x-5---||
|-(2)---2-2-2-2-(0)-2-|-(2)-2-2---2-2---5--o||
|---------------------|---------------------||
                              end Rhy Fig 2-|

 Verses 2 + 4
  $
  Gtr I              |-w/Fill 2
  +E  E E E E E E E   +E  E E E E E     E E
|-------------------|-----------------------|
|-(6)---6---6-----8-|-(8)---8---8-6-------6-|
|-(5)-5-5---5-5---8-|-(8)---8---8-6-------5-|
|-(5)-5-5---5-5---8-|-(8)-6-8---8-6-------5-|
|-(5)-5-5---5-5---6-|-(6)-6-6-------------5-|
|-------------------|-----------------------|
|-Rhy Fig 3

                    Gtr III
   ~~~
  +H.           Q      E  E E E E E E  S  S
|-(2)---------------|---------------5--------|
|-------------------|-------------5---11s13--|
|-------------------|-----------5------------|
|-------------------|---------5--------------|
|-------------------|-----7s9----------------|
|-------------------|------------------------|
|
| +E  E E E E E E E   +E  E E E E E E  E
|-------------------|------------------------|
|-(6)---6---6-5-5-5-|-(5)-5------------6-----|
|-(5)-5-5---5-5-5-5-|-(5)-5------------5-----|
|-(5)-5-5-5-5-5-5-5-|-(5)-5-7---5-7----5-----|
|-(5)-5-5-5-5-5-5-5-|-(5)-5-5---5-5----5-----|
|-------------------|------------------------|
                               end Rhy Fig 3-|

w/Rhy Fig 3
           ~~~~~~~~~~               ~~~~
   +Q     +Q     +E   E  +E   E    +H         +E    a  Q    E
|-------------------------------|-----------------------------|
|-(13)---(13)---(13)-13-(13)s14-|-(14)-------(14)\-14s16s==13-|
|-------------------------------|-----------------------------|
|-------------------------------|-----------------------------|
|-------------------------------|-----------------------------|
|-------------------------------|-----------------------------|

    ~~~~~~~~~~~~~~
   +H         +Q.      +E      E  E E E E E E  S  S
|---------------------------|---------------5---------||
|-(13)-------(13)-----(13)\-|-------------5---11s13---||
|---------------------------|-----------5-------------||
|---------------------------|---------5---------------||
|---------------------------|-----7s9-----------------||
|---------------------------|-------------------------||


 Chorus
w/Rhy Fig 2 + Rhy Fig 5 x2 (on D.S. only)
                                    ~~~~~~~~~~~~~~~~
   +H           +E   a  E  E  E    +H           +E    E  +E    E
|-------------------------------|--------------------------------|
|-(13)---------(13)-15s17-17-15-|-(15)---------(15)-/17-(17)s=14-|
|----------------------17-17-15-|-(15)---------(15)--17-(17)s=14-|
|-------------------------------|--------------------------------|
|-------------------------------|--------------------------------|
|-------------------------------|--------------------------------|
  +H           +E      E  E  E    +H           +E    E  +E    E


    ~~~~~~~~~~~~~~~~~
   +H            +Q.         E     E  E E E E E E     S  S
|------------------------------|----------------5-----------|
|-(14)----------(14)-----------|--------------5------11s13--|
|-(14)----------(14)-----------|------------5---------------|
|------------------------------|----------5-----------------|
|------------------------------|------7s9-------------------|
|------------------------------|----------------------------|
   +H            +Q.         E


                                        ~~~~~~~~~~~~~~~~
   +Q      +E.    S   E   E  +E   E    +H           +E    E  +E    E
|-----------------------------------|--------------------------------|
|-(13)----(13)---13-(13)-17-(17)s15-|-(15)---------(15)-/17-(17)s=14-|
|------------------------17-(17)s15-|-(15)---------(15)-/17-(17)s=14-|
|-----------------------------------|--------------------------------|
|-----------------------------------|--------------------------------|
|-----------------------------------|--------------------------------|
   +H                +E   E  +E   E    +H           +E    E  +E    E


w/ Fill 2
    ~~~~~~~~~~~~~~~~~~~~~~~~~~~~~~~~
   +W                           +H        H
|----------------------------|--------------------------||
|-(14)-----------------------|-(14)---------------------||
|-(14)-----------------------|-(14)---------------------||
|----------------------------|--------------------------||
|----------------------------|--------------------------||
|----------------------------|--------------------------||
   +W                           +H        H


w/Rhy Fig 5
    Gtr I
               |-3-|
      E   E  E S S S  E  E E  E
||------------------------------|
||o--(2)h=3--2-2h3p2--0-------2-|
||---(0)-----0-0------0-------0-|
||---(0)-----0-0------0--0-3--0-|
||o--(0)-----0-----------0-3--0-|
||---(0)------------------------|

[ Tab from: http://www.guitartabs.cc/tabs/s/stone_temple_pilots/dancing_days_tab.html ]
                                |-w/Fill 1
                                                     To Coda
             |-3-|                            |-3-|
   +E   E  E S S S  E  E E   E     +E   E  E  S S S  Q    E  E
|-------------------------------|------------------------------|
|--(2)h=3--2-2h3p2--0--------2--|--(2)h=3--2--2h3p2----------2-|
|--(0)-----0-0---------------0--|--(0)-----0-----------------0-|
|--(0)-----0-0---------0-3---0--|--(0)-----0-----------------0-|
|--(0)-----0-----------0-3---0--|--(0)-----------------------0-|
|---------------------------(0)-|--(0)-------------------------|


  1.                             2.
           |-3-|                         |-3-|
   +E  E E S S S E E E     E     +E  E E S S S E E E  a  E
|-----------------------------||----------------------------||
|--(2)h3-2-2h3p2-0---------2-o||-(2)h3-2-2h3p2p0------3s=5--||
|--(0)---0-0---------------0--||-(0)---0-0------------3s=5--||
|--(0)---0-0-------0-3-----0--||-(0)---0-0-------0-3--3s=5--||
|--(0)---0---------0-3-----0-o||-(0)---0---------0-3--3s=5--||
|-----------------------------||----------------------------||
|
|  +H.               E  a  E      H            Q   E  a  E
|-(14)-----------------17s19--||---------------------17s19--||
|-(14)-----------------16s18-o||---------------------16s18--||
|-----------------------------||----------------------------||
|-----------------------------||----------------------------||
|----------------------------o||----------------------------||
|-----------------------------||----------------------------||


   Verse 3
w/Rhy Fig 1
     +E   E  E E  E   E  E  a  E     +E   E  E E  E  E E  a  E
||--(19)-17-19---19--17----19s20--|-(20)-18-20---20-18---17s19-|
||o-(18)-17-18---18--17----19s20--|-(20)-18-20---20-18---16s18-|
||--------------------------------|----------------------------|
||--------------------------------|----------------------------|
||o-------------------------------|----------------------------|
||--------------------------------|----------------------------|


   +E   E  E  E  E  E E  E    +H.           E  a  E
|-(19)-17-19-17-19-17---17-|-(17)-------------17s19--||
|-(18)-17-18-17-18-17---17-|-(17)-------------16s18-o||
|--------------------------|-------------------------||
|--------------------------|-------------------------||
|--------------------------|------------------------o||
|--------------------------|-------------------------||


   Chorus
w/Rhy Fig 2
     +E   E  E E  E  E E  E    +E   E  E E  E  E E   E
||--(19)-17-19---19-17---17-|-(17)-15-17---17-15---/15-|
||o-(18)-17-18---18-17---17-|-(17)-15-17---17-15---/15-|
||--------------------------|--------------------------|
||--------------------------|--------------------------|
||o-------------------------|--------------------------|
||--------------------------|--------------------------|
 |-Rhy Fig 5

                                                       D.S. al Coda
   +E   E  E  E  E  E  E   E    +H.           E  a  E
|-(15)-14-15-14-15-14-----14-|-(14)-------------17s19--||
|-(15)-14-15-14-15-14-----14-|-(14)-------------16s18-o||
|----------------------------|-------------------------||
|----------------------------|-------------------------||
|----------------------------|------------------------o||
|----------------------------|-------------------------||
                                         end Rhy Fig 5-|

 Guitar Solo
  &
  Gtr III
  H           Q   E     E    +Q      Q     E  E E   E
|-------------------------|---------------------------|
|-------------------------|----------------3-/5-----6-|
|----------------------/5-|--(5)----/3\----3-/5-x---6-|
|----------------------/5-|--(5)----/3\----3-/5-----6-|
|-------------------------|---------------------------|
|-------------------------|---------------------------|
|
| Gtr VI
| H           Q   E  a  E    +E   E  E  E  E  E E   E
|-------------------17s19-|-(19)-17-19----19-17---/20-|
|-------------------16s18-|-(18)-17-18----18-17---/20-|
|-------------------------|---------------------------|
|-------------------------|---------------------------|
|-------------------------|---------------------------|
|-------------------------|---------------------------|
|
| Gtr I
|       |-3-|
| E E E S S S E E E  a  E    +E   E  E  E  E  E E   E
|-------------------------|---------------------------|
|-2h3-2-2h3p2p0------3s=5-|--(5)--5--6-----6--5-----8-|
|-0---0-0------------3s=5-|--(5)--5--5-----5--5-----8-|
|-0---0-0-------0-3--3s=5-|--(5)--5--5-----5--5-----8-|
|-0---0---------0-3--3s=5-|--(5)--5--5-----5--5-----6-|
|-------------------------|---------------------------|


    ~~~~                                   ~~
   +H            E  E a  E a  E    +E   E  Q   +E  a  E E a  E
|-------------------------------|--------------------------------|
|--(6)---------------------8s10-|-(10)s=8--8---(8)-8s10---8s10---|
|--(6)-----------6s=8-8s10-8s10-|-(10)s=8--8---(8)-8s10---8s10---|
|--(6)-----------6s=8-8s10-8s10-|-(10)s=8--8---(8)-8s10---8s10---|
|-------------------------------|--------------------------------|
|-------------------------------|--------------------------------|
|
|  +E   E  E  E  E  E    E    E    +E   E  E E  E     E E    E
|-(20)-18-20----20-18--------22-|-(22)-20-20---20----22-----22---|
|-(20)-18-20----20-18--------22-|-(22)-20-20---20----22-----22---|
|-------------------------------|--------------------------------|
|-------------------------------|--------------------------------|
|-------------------------------|--------------------------------|
|-------------------------------|--------------------------------|
|
|  +E   E  E  E  E  E    E    E    +E   E  E E  E     E E    E
|-------------------------------|--------------------------------|
|--(8)----(8)----------------10-|-(10)---------------10-----10---|
|--(8)--6--8-----8--6--------10-|-(10)--8--8----8----10-----10---|
|--(8)--6--8-----8--6----x---10-|-(10)--8--8----8----10-x---10---|
|--(6)--6--6-----6--6---------8-|--(8)--8--8----8-----8------8---|
|-------------------------------|--------------------------------|


   +E   E  E E  E  Q      E    +E   E  E E  E  Q     E
|---------------------------|--------------------------|
|-(10)s=8--8s7--8-10\---/10-|-(10)p=8--8s7--8-10\------|
|-(10)s=8--8s7--8-10\---/10-|-(10)p=8--8s7--8-10\------|
|-(10)s=8--8s7--8-10\---/10-|-(10)p=8--8s7--8-10\----9s|
|---------------------------|------------------------9s|
|---------------------------|--------------------------|
|
|  +E   E  E E  E  E  E   E    +E   E  E E  E  E  E  E
|-(22)-20-20---20-22-----22-|-(22)-20-20---20-22----19-|
|-(22)-20-20---20-22-----22-|-(22)-20-20---20-22----18-|
|---------------------------|--------------------------|
|---------------------------|--------------------------|
|---------------------------|--------------------------|
|---------------------------|--------------------------|
|
|  +E   E  E E  E  E  E   E    +E   E  E E  E  E  E  E
|---------------------------|--------------------------|
|-(10)------------10-----10-|-(10)------------10----10-|
|-(10)--8--8----8-10-----10-|-(10)--8--8----8-10----10-|
|-(10)--8--8----8-10-----10-|-(10)--8--8----8-10----10-|
|--(8)--8--8-x--8--8--x---8-|--(8)--8--8-x--8--8--x-10-|
|----------8----8--8------8-|--(8)---------------------|


           ~~~~~~~~~~
    E   E  Q     +E   +Q        E
|---------------------------------||
|---------10----(10)-(10)\--------||
|------10-------------------------||
|--10-----------------------------||
|--10-----------------------------||
|---------------------------------||
|
|                          Gtr V
|  +E   E  E  E   E    E    E   E
|-(19)-19-19-19--19---19-------11-||
|-(18)-18-18-18--18---18----------||
|---------------------------------||
|---------------------------------||
|---------------------------------||
|---------------------------------||
|
|  +E   E  E  E   E    E    E   E
|---------------------------------||
|-(10)-10-10-10--10---10---10\--2-||
|-(10)-10-10-10--10---10---10\--0-||
|-(10)-10-10-10--10---10---10\--0-||
|-(10)-10-10-10--10---10---10\--0-||
|---------------------------------||


    Gtr V
                |--3--|
     +E   E  E  S  S  S E E E  E
||--(11)h12-11-11h12p11p9-----11-|
||o------------------------------|
||-------------------------------|
||-------------------------------|
||o------------------------------|
||-------------------------------|
m |-Fill 3              end Fill3-|
|   Gtr II
|               |--3--|
|    +E   E  E  S  S  S E E E  E
||-------------------------------|
||o--(2)h=3--2--2h=3p=2p0------2-|
||---(0)-----0------------0----0-|
||---(0)-----0------------0-3--0-|
||o--(0)-----0------------0-3--0-|
||-------------------------------|



w/Fill 3 x2                    |-w/Fill 1
              |--3--|                        |--3--|
   +E   E  E  S  S  S E E E  E     E   E  E  S  S  S Q   E  E
|------------------------------|------------------------------|
|--(2)h=3--2--2h=3p=2p0-0----2-|---2h==3--2--2h=3p=2--------2-|
|--(0)-----0------------0----0-|---0------0-----------------0-|
|--(0)-----0------------0-3--0-|---0------0-----------------0-|
|--(0)-----0--0---------0-3--0-|---0------0-----------------0-|
|------------------------------|------------------------------|


  1.                               2.
              |--3--|                           |--3--|
   +E   E  E  S  S  S E E E  E       +E   E  E  S  S  S E E E E   +W
|-(11)h12-11-11h12p11p9-----11--||--(11)h12-11-11h12p11p9-----9-|-(9)----*|
|------------------------------o||----------------------------8-|-(8)----*|
|-------------------------------||----------------------------7-|-(7)----*|
|-------------------------------||------------------------------|--------*|
|------------------------------o||------------------------------|--------*|
|-------------------------------||------------------------------|--------*|
|
|             |--3--|                           |--3--|
|  +E   E  E  S  S  S E E E  E       +E   E  E  S  S  S E E E E   +W
|-------------------------------||------------------------------|--------*|
|--(2)h=3--2--2h=3p=2p0-0----2-o||---(2)h=3--2--2h=3p=2p0-----0-|-(0)----*|
|--(0)-----0--0---------0----0--||---(0)-----0--0---------0-3-0-|-(0)----*|
|--(0)-----0------------0-3--0--||---(0)-----0--0---------0-3-0-|-(0)----*|
|--(0)-----0------------0-3--0-o||---(0)-----0------------0-3-0-|-(0)----*|
|-------------------------------||------------------------------|--------*|
Comments