Stone Temple Pilots - Creep Chords & Tabs

 

Creep Chords & Tabs

Stone Temple Pilots Chords & Tabs

Version: 1 Type: Tab 0 ratings
1 star 2 stars 3 stars 4 stars 5 stars
comments

Creep Tab

   
#----------------------------------PLEASE NOTE---------------------------------#
#This file is the author's own work and represents their interpretation of the #
#song. You may only use this file for private study, scholarship, or research. #
#------------------------------------------------------------------------------##
#

Date: 13 Sep 1993 20:11:21 -0400 (EDT)
From: DAVE RITCHIE 

                                   Creep
                             Stone Temple Pilots



This is the intro part.  I just used the basics, he is strumming but I just
wrote down the accents.  That Bsus4 might be called something else but just
for the sake of calling it something I called it Bsus4. ---> 
  
 
    C             Bsus4     E       ^  EsusG   C      ^    Bsus4    E(hold)
             ^
:--------------:--2--2---:-----------:-3----:-----------:--2--2--:---------
:---1-----1--1-:--4--4---:-----------:------:--1---1--1-:--4--4--:---------
:--------------:--2--2---:-----------:------:-----------:--2--2--:---------
:---2-----2--2-:--4--4---:--2---2---2:-2----:--2---2--2-:--4--4--:--2------
:---3-----3--3-:--2--2---:--2---2---2:-2----:--3---3--3-:--2--2--:--2------
:---3-----3--3-:--2--2---:-----------:------:--3---3--3-:--2--2--:---------



This is the verse.  Just keep repeating this until you get to the end of the
verse where he just stays on E.  In all of these E chords he adds G(1st string
3rd fret) on the off beats...listen for it.  

    E    E    C   Bsus4   E    E      C    Bsus4

:-----:----:----:--2---:----:---3-:------:--2----                          
:-----:----:--1-:--4---:----:-----:---1--:--4----
:-----:----:----:--2---:----:-----:------:--2----                          
:---2-:--2-:--2-:--4---:--2-:--2--:---2--:--4---- 
:---2-:--2-:--3-:--2---:--2-:--2--:---3--:--2----                          
:-----:----:--3-:--2---:----:-----:---3--:--2----


This is the next part, whatever you want to call it...bridge I guess.  The last
two bars are not just C and D chords.  The C is fingered differently.  Use your 
fourth finger for the C, your third finger for the E and your second finger for
the high C.  To go up to the D from there just slide your hand up two frets and
bar the second fret.  I realize it would be just as easy to play a normal first
position C with a first position D but this sounds better.


     G           Am         E          G           Am       E

:----3--3--3-:----------:---------3-:--3--3--3--:--------:---------3---------
:------------:---2---2--:-----------:-----------:--2--2--:-------------------
:------------:---3---3--:-----------:-----------:--3--3--:-------------------
:------------:---3---3--:---2---2---:-----------:--3--3--:--2---2------------
:----2--2--2-:----------:---2---2---:--2--2--2--:--------:--2---2------------
:----3--3--3-:----------:-----------:--3--3--3--:--------:-------------------

    G           Am         C       D

:---3--3--3-:---------:--------:---2---2---                                  
:-----------:---2---2-:----1---:---3---3--- 
:-----------:---3---3-:--------:---2---2---                                  
:-----------:---3---3-:----2---:---4---4---
:---2--2--2-:---------:----3---:---5---5---                                     
:---3--3--3-:---------:----x---:---x---x---


This, finally, is the chorus.  This is what I got out of it anyway.  The chords
are simple so I'll write the lead.  Now, I might have made a mistake in this
part, If so please message me and tell me so I can fix it.  Keep playing the
first two bars until the last part of the chorus.  The only difference is the 
last three notes.  

[ Tab from: http://www.guitartabs.cc/tabs/s/stone_temple_pilots/creep_tab.html ]
                                         end part -->
:-------------------:-------------------:-------------------:------------------
:------------------0:--------0---------::-----------------0-:--------0---------
:--------0-------0--:------0------------:-------0-------0---:------0-----------
:------2-------3----:----5-----------2--:-----2-------3-----:----5-------------
:----2--------------:-----------2--5---::---2---------------:------------1--2--
:--0---------1------:--2------5---------:-0---------1-------:--2-------5-------



If you have any questions, concerns, comments, foibles, mistakes, stinkers,
etc. please mail me at:
uhlnpya@Oak.grove.iup.edu
thanks, Dave Ritchie




This is a better version of Creep by the Stone Temple Pilots than you have
at the moment. 
                                      Creep
                             Stone Temple Pilots



This is the intro part.  It's just the strumming of three chords: C, Bsus4,
and Em7. I haven't written down the rhythm, but its easy to get.
  
 
    C   Bsus4  Em7    C   Bsus4  Em7(hold)
             
:---0--:--2--:--3--:--0--:--2--:--3------
:---1--:--4--:--3--:--1--:--4--:--3------
:---0--:--2--:--0--:--0--:--2--:--0------
:---2--:--4--:--2--:--2--:--4--:--2------
:---3--:--2--:--2--:--3--:--2--:--2------
:------:--2--:--0--:-----:--2--:--0------



Next is the verse.  Repeat this chord progression until you get to the end
of the
verse where he just stays on Em7. 

   Em7  Em7   C  Bsus4   Em7  Em7     C   Bsus4

:---3-:--3-:--0-:--2---:--3-:--3--:---0--:--2----                          
:---3-:--3-:--1-:--4---:--3-:--3--:---1--:--4----
:---0-:--0-:--0-:--2---:--0-:--0--:---0--:--2----                          
:---2-:--2-:--2-:--4---:--2-:--2--:---2--:--4---- 
:---2-:--2-:--3-:--2---:--2-:--2--:---3--:--2----                          
:---0-:--0-:----:--2---:--0-:--0--:------:--2----


The next part is where Weiland starts singing 'Take time with a wounded
hand..'
Each time when you get to the Em7 chord, make sure you strum the high D and
G
on the first and second strings along to the rhythm.

     G     Am     Em7       G    Am    Em7

:----3--:---0--:---3-----:--3--:--0--:--3---
:----3--:---2--:---3-----:--3--:--2--:--3---
:----0--:---3--:---0-----:--0--:--3--:--0---
:----0--:---3--:---2-----:--0--:--3--:--2---
:-------:---0--:---2-----:-----:--0--:--2---
:----3--:------:---0-----:--3--:-----:--0---

    G      Am       C       D

:---3---:---0--:----0---:---2---
:---3---:---2--:----1---:---3--- 
:---0---:---3--:----0---:---2---                                  
:---0---:---3--:----2---:---4---
:-------:---0--:----3---:---5---                                    
:---3---:------:----x---:---x---


Lastly, here is the chorus.  Play this 4 times.  Remember to hold the B at
the
end of each time.


:-------------------:--------------------:-----------------------:----------
-:
:-------------------:--------------------:-----------------------:----------
-:
:-------------------:--------------------:-----------------------:----------
-:
:------0---------0--:--------0---------2-:-----0-------0-------0-:----------
-:
:----2---------2----:------2-----0-2-5---:---2-------2-------2---:---0-1-2--
-:
:--0-------0-2------:--2-3-----3---------:-0-----0-2-----2-3-----:-3--------
-:


If you have any suggestions, etc. email me at:
bigmax@tpgi.com.au

Til' next time.  Dave Duffett.


#----------------------------------PLEASE NOTE---------------------------------#
#This file is the author's own work and represents their interpretation of the #
#song. You may only use this file for private study, scholarship, or research. #
#------------------------------------------------------------------------------#

FROM: JOYCE5@cris.com
SUBJECT: "creep"          
By Stone Temple Pilots

E-----------------------------------------------------------------
B-----------------------------------------------------------------
G-----------------------------------------------------------------
D---------0----------0-----------0-------------0---2--------------
A------2----------0-----------2---------0---2---------------------
E---0-------0--2--------2--3---------3----------------------------



E-Mail me, and give suggestions
on upcoming transcriptions.

Dan Joyce
JOYCE5@cris.com
Comments