Stone Temple Pilots - Big Empty Chords & Tabs

 

Big Empty Chords & Tabs

Stone Temple Pilots Chords & Tabs

Version: 2 Type: Bass Tab 0 ratings
1 star 2 stars 3 stars 4 stars 5 stars
comments

Big Empty Bass Tab

   
Forwarded message:
Subj:    Big Empty- Enjoy
Date:    96-04-12 20:42:58 EDT
From:    Dharma77
To:      Corey98,Dharma77

Big Empty- regular Tuning

By Stone Temple Pilots
This is my version of it so there may be some mistakes.

INTRO:
G--------------------------------------|--------------------------------------
-----------
D---------------
 ---5-------------------|--------------------------------------------------
A-------------  -5---
--7----5--7--5---|-----3-------------3---3---------------3---2----------------
--
E-----0-----7-------------------------|---------------3-----------------3-----
-----------3----

G-----------------------------------------------|-----------------------------
-------------------      bend here
D-----------------5-----------------------------|-----------------------------
-------------7-------5~-~
A-------------5-----7----------------7----5---|-----3----------3---3------3///
5--7-------7----------------------
E---0-----7---------------------7--------------|-------------3----------------
-----------------------

Verse:
G--------------------------------------|--------------------------------------
-----------------------------------------------
D-*--------------5----------------------|-------------------------------------
-----------------------------------------------
A-*---------5------7----5--7--5------|--3----------3---3-----------3---2------
----------------------------------------E
-0--7-----------------------------|----------3---------------3-------------3--
------------------------------------

dRIVIN fASTER IN mY CAR............
G












                                                                            |
D                   5                  |
                                              * |
A              5        7     5 7 5 |    3       3 3             0 3 2
         *|
E    0   7                            |          3             0 3          3
       |
[ Tab from: http://www.guitartabs.cc/tabs/s/stone_temple_pilots/big_empty_btab_ver_2.html ]
CHORUS: repeat 4x
G-------------------------------------------------------------------5---------
--5--4-------------------
D-*---------------------------------------7--|-------------------5------------
------------5/////--- *
A
*----------5--5-5----------------7-------|---3-3--3--3------------------------
----------------*-
E---3-----------------5
5-5--5-----------|----------------------------------------------------------

G-----------------------------------------------------------------------------
----------------------------
D------------------------------------------|--------------5--5//7//8---------5
--5~7------------------------------------
A------------------------------------------|--------3---------------------7---
------------------------------















E-3--3--3--3-----3--1----3---5----0|------------------------------------------
---------------------

G---------------------------------------|-------------------------------------
-------12-----------------------------
D---------------5-----------------------|-------------------------------------
------------12///----------------------------
A-----------5-----7-----5--7--5///---|----3-------3-----3-3-------///12-------
---------------------------------------
E---0---7------------------------------|-----------------3--------------------
----------------------8///--------
back to 2nd Verse

Bass Solo( after 2nd chorus) Interlude:
G---------------------------------9--11--|---12---11---9--7---------7---------
---------------------------------
D-----------------------------9------------|-----------------------7h9-------7
//5----7h9h7-----5~~~~----------
A------------------------------------------|----------------------------------
-----------------------------------  7//----
E------------------------------------------|----------------------------------
----------------------------------------   7

repeat till chorus
G-----------------------------------------------------------------------------
---------------------------------------------
D-----------------------------------------------------------------------------
--------5------------------------------------
A-----7---7-----5--------7--7-----5---------7--7-------7-----
  -7--------5----------5------------------------------
E-------------7------------------7---------------------7-------- --
    --7-------------------------------

and end on
G-----------------------------------------------------------------------------
----
D-----------------------------------------------------------------------------
---
A-----------------------------------------------------------------------------
--
E----------3-----------3---------------1----------1--------------------0------
-----

Key:
*- repeat
~~- bend
//- hammer
h- hammer on

Comments