Stone Temple Pilots - Big Bang Baby Chords & Tabs

 

Big Bang Baby Chords & Tabs

Stone Temple Pilots Chords & Tabs

Version: 1 Type: Tab 0 ratings
1 star 2 stars 3 stars 4 stars 5 stars
comments

Big Bang Baby Tab

#This file is the author's own work and represents their interpretation of the #
#song. You may only use this file for private study, scholarship, or research. #
#------------------------------------------------------------------------------#
#

Date: Thu, 04 Jul 1996 19:29:08 +0000
From: Josh & Crystal 



Big Bang Baby - Stone Temple Pilots

Guitar Tab, Bass Tab,

    VERSE:

E|-----------------|-----------------| Guitar
B|-----------------|-----------------|
G|-------------7-6-|-5-5-----------7-|
D|-2-2-5-6-7-7-7-6-|-5-5-9-7-5-5-5-7-|
A|-2-2-5-6-7-7-5-4-|-3-3-9-7-5-5-5-5-|
E|-0-0-3-4-5-5-----|-----7-5-3-3-3-5-|

   : : :

   a|-------------5-4-|-3-3-2-0-------5-| Bass

   e|-0-0-3-4-5-5-----|---------3-3-3---|

   
E|-----------------|-----------------|
B|-----------------|-----------------|
G|-------------7-6-|-5-5-----------9-|
D|-2-2-5-6-7-7-7-6-|-5-5-9-8-7-7-7-9-|
A|-2-2-5-6-7-7-5-4-|-3-3-9-8-7-7-7-7-|
E|-0-0-3-4-5-5-----|-----7-6-5-5-5-7-|

   : : :

   a|-------------5-4-|-3-3-2-0---------|

   e|-0-0-3-4-5-5-----|---------5-5-5-7-|

   
CHORUS:

E|-----------------|-----------------|
B|-----------------|-----------------|
G|-5---5---5---5---|-----------------|
D|-5---5---5---5---|-7---7---7---7---|
A|-3---3---3---3---|-7---7---7---7---|
E|-3---3---3---3---|-5---5---5---5---|

   : : :

   d|-----------------|---------------5-|

   a|-3---3---3-3-----|------------5h7-5| 1st time

   e|-------3---------|-5---5---5-------|

   : : :

   d|-----------------|---------------5-|

   a|-3---3---3-3-----|-5---5---5--5h7-5| 2nd time

   e|-------3---------|-----------------|

   

E|-0---------------|-----------------|
B|-0---------------|-----------------|
G|-1---------------|-----------------|
D|-2--- strum repeatedly for---------|
A|-2------ two measures -------------|
E|-0---------------|-----------------|

   : : :

   a|-7-7---7-7-7---7-|-7-7-----7-7--7-5|

   e|-----------------|-------------7---|

   
BRIDGE:

E|-7------|-8-------|-7-------|-8-------|
B|-9------|-8-------|-9-------|-8-------|
G|-9------|-9-------|-9-------|-9-------|
D|-9------|-10------|-9-------|-10------|
A|-7------|-10------|-7-------|-10------|
E|-7------|-8-------|-7-------|-8-------|

   : : : : :

   a|-------2|-3-3--33-|-------2-|-3-3--33-|

   e|-0-0-04-|-----3--3|-0-0-04--|-----3--3|


E|-5------|-5---5---|-7-------|-----------|
B|-5------|-7---5---|-9-------|-----------|
G|-5------|-7---5---|-9-------|- special -|
D|-7------|-7---7---|-9-------|- ending --|
A|-7------|-5---7---|-7-------|-----------|
E|-5------|-5---5---|-7-------|-----------|

   : : : : :

   a|--------|-5-------|---------|-----------|

   e|45-50550|-----5---|-0-------|-----------|

   

   The ending is either a long bass slide or harmonics on the guitar made

   by lighlty touching the strings and sliding the finger up the

   fretboard

   (as in Zero by the Pumpkins)

   

----

Date: Thu, 30 May 1996 21:15:12 -0700
From: steven 



  Transcribed by S D Q (stephen@kspress.com)
  Stone Temple Pilots                                
  "Big Bang Baby"
  Guitar Tablature, and Lyrics   Verse:
e:-------------------------------------------------------------|
B:-------------------------------------------------------------|
G:--------------7-6-5-5-4-4------------------------------------|
D:--2-2-5-6-7-7-7-6-5-5-4-4-5-5-7------------------------------|
A:--2-2-5-6-7-7-5-4-3-3-2-2-5-5-7------------------------------|
E:--0-0-3-4-5-5-------------3-3-5------------------------------|


Verse 2:

[ Tab from: http://www.guitartabs.cc/tabs/s/stone_temple_pilots/big_bang_baby_tab.html ]
e:-------------------------------------------------------------|
B:-------------------------------------------------------------|
G:--------------7-6-5-5-4-4------------------------------------|
D:--2-2-5-6-7-7-7-6-5-5-4-4-7-7-9------------------------------|
A:--2-2-5-6-7-7-5-4-3-3-2-2-7-7-9------------------------------|
E:--0-0-3-4-5-5-------------5-5-7------------------------------|



Chorus:

e:-------------------------------------------------------------|
B:-------------------------------------------------------------|
G:--5-5-5-5-5-5------------------------------------------------|
D:--5-5-5-5-5-5--7-7-7-7-7-7-----------------------------------|
A:--3-3-3-3-3-3--7-7-7-7-7-7-----------------------------------|
E:---------------5-5-5-5-5-5-----------------------------------|



Bridge:  Repeat strumming of this chord

e:----------------------------|
B:-------------12-------------|
G:-------------13-------------|
D:-------------14-------------|
A:-------------14-------------|
E:----------------------------|

==========================================================================================================

Tablature for "Big Bang Baby"
By Stone Temple Pilots
Off their new album, "Tiny Music.....Songs From The Vatican Gift Shop"
Words by Scott Weiland 

Music by Robert DeLeo
Transcribed by Ewoks2@ix.netcom.com

Verse:
e----------------------------------------------------------
b----------------------------------------------------------
g----------------------------------------------------------
d--------------------------7--6--5--5--4-\-3---------------
a---2--2--5--6--7--7--5--4--3--3--2-\-1-5--5--7--9---------
E--0--0--3--4--5--5-------------------------3--3--5--7-----

e--------------------------------------------------------------
b--------------------------------------------------------------
g--------------------------------------------------------------
d------------------------7--6--5--5----------------------------
a--2--2--5--6--7--7--5--4--3--3--9--8--7--7--9-11--------------
E--0--0--3--4--5--5----------------7--6--5--5--7--9------------

Pre-Chorus:

e------------------------------------------------------------------------=
b------------------------------------------------------------------------=
g--5--5--5--5--5--5--2--2--2--2--2--2--2--1--1--1--1--1--1--1--1---------=
d--5--5--5--5--5--5--2--2--2--2--2--2--2--2--2--2--2--2--2--2--2---------=
a--3--3--3--3--3--3--0--0--0--0--0--0--0--2--2--2--2--2--2--2--2--etc.---=
E--------------------------------------------------0--0--0--0--0--0--0--0=
--

Chorus:
e---0---0----0----0----0----0----0---0----0---0--R
b--12--12--12--12--13--13--13--13--13--13--E
g--13--13--13--13--12--12--12--12--12--12--P
d--14--14--14--14--14--14--14--14--14--14--E
a--14--14--14--14--14--14--14--14--14--14--A
E--0----0----0----0----0---0----0----0----0---0--T

e------------------------------------------------------------------------=
b--13--13--13--13--13--13--15--15--15--13--13--13--13--------------------=
g--14--14--14--14--14--14--14--14--14--14--14--14--14--------------------=
d--14--14--14--14--14--14--16--16--16--14--14--14--14--------------------=
a------------------------------------------------------------------------=
E------------------------------------------------------------------------=


e------------------------------------------------------------------------=
b--12--12--12--12--12--12--12--12--12--12--12--12--12--12
g--13--13--13--13--13--13--13--13--13--13--13--13--13--13    GRADUAL SLID=DOWN
d--14--14--14--14--14--14--14--14--14--14--14--14--14--14
a--14--14--14--14--14--14--14--14--14--14--14--14--14--14
E------------------------------------------------------------------------=
Comments