Stone Temple Pilots - Bi Polar Bear Chords & Tabs

 

Bi Polar Bear Chords & Tabs

Stone Temple Pilots Chords & Tabs

Version: 1 Type: Tab 0 ratings
1 star 2 stars 3 stars 4 stars 5 stars
comments

Bi Polar Bear Tab

#-----------------------------------------------------------------------------#
#-- File created with Instab - http://www.pconline.com/~smcarey/instab.html --#
#-----------------------------------------------------------------------------#

Author/Artist: Stone Temple Pilots
Title: Bi-Polar Bear
Album: Shangri 
Transcribed by: Saverain
Email: saverain@hotmail.com

I got the intro but I need the Chorus
This is my first tab so don't laugh
This may be in D-Tuning or two guitars one standard 
one D- tuning   I did the whole thing in standard tuning
because it sounds better to me.  This is the best 
sounding guitar song I have ever heard.  Amazing cords
/ slide up  \ slide down
m mute  s strum down slowly
v strum down
^strum up

-|-------------0------------0----------------------------------------------|--
-|---0---0-----0----0---0---0--------------------------------0-------0-----|--
-|---3---3---x-3----3---3---3---------------5--------xx6--6--6-6--6--6-6-6-|--
-|---4---4---x-4----4---4---4-------------3-3-2------xxx--x--x-x--x--x-x-x-|--
-|---5---5---x-5----5---5---5--/8-8-8-\3--3-3-3--3-3-xx4--4--4-4--4--4-4-4-|--
-|3----3---3-x----3---3---3---3-5-6-5-\1--1-1-0--1-0-xx5--5--5-5--5--5-5-5-|--
  v  v ^ v ^ v ^  ^ v ^ v ^ v ^ v v v     ^ v ^  ^ v v^v  v  ^ v  ^  ^ v ^    

-|-------------0------------0------------------------------------------|------
-|---0---0-----0----0---0---0----------------------------0-------0-----|------
-|---3---3---x-3----3---3---3--------------------xx6--6--6-6--6--6-6-6-|------
-|---4---4---x-4----4---4---4-------------2--3---xxx--x--x-x--x--x-x-x-|------
-|---5---5---x-5----5---5---5--/8-8-8-\3--3--3-3-xx4--4--4-4--4--4-4-4-|------
-|3----3---3-x----3---3---3---3-5-6-5-\1--0--1-0-xx5--5--5-5--5--5-5-5-|------
  verse                                   ^  ^ v                              

-|-------------0------------0-----------------------0------0-----0-0-----0-0--
-|---0---0-----0----0---0---0-----------------------3--3-3-3-3/5-5-5-5/7-7-7--
-|---3---3---x-3----3---3---3---------------------xx2--2-2-2-2/4-4-4-4/6-6-6--
-|---4---4---x-4----4---4---4-------------2h3-3-2-xx0--0-0-0-x---0-0-x---0-0--
-|---5---5---x-5----5---5---5--/8-8-8-\3--3-3-3-3-xx0--0-0-0-5/7-0-0-7/9-0-0--
-|3----3---3-x----3---3---3---3-5-6-5-\1--0h1-1-0-xx--------------------------
  pre chorus                              v         s  v v ^ v   v ^ v   v ^  

-------0-0------0--0-0--0-0-0-0-|--------------------|------------------------
-7/-9--9-9-9--9-9--9-9--9-9-9-9-|----------3---------|----7---5---------------
-6/-8--8-8-8--8-8--8-8--8-8-8-8-|----------0---------|----7-7---5-------------
-x-----0-0-x--x-x--x-x--x-x-x-x-|----------0---------|-7--------------7-7-7---
-9/-11-0-0-11-1111-1111-11111111|----------x---------|-5----------5-5-5-5-5---
----------------0--0-0--0-0-0-0-|----------3---------|-5----------5-5-----5---
 v     v ^ v  v ^  ^ v  v ^ v ^  chorus mostly drums   v m^ v ^ v v ^ v ^ v   

---|---------------|-0----------------------|------------------|-----------|--
---|---------------|-10--10--3-3--3------3--|------------------|-----------|--
---|---------------|-11--11--2-2--2-/7---5--|------------------|-----------|--
---|---------------|-12------0-0--0------5--|------------------|-----------|--
-5-|---------------|-0-------x-x--x------3--|------------------|-----------|--
-5-|---------------|-10------5-5--5-/10--3--|------------------|-----------|--
 ^m  chorus outro>   v   v  m^ v  ^     m^   verse                    chorus  
[ Tab from: http://www.guitartabs.cc/tabs/s/stone_temple_pilots/bi_polar_bear_tab.html ]
------------------------------------------------------------------------------
-10b12v-10h11-----------------------------------------------------------------
--------------11-12/------9--9/10\9-------9--9b10r9----9----------------------
----------------------12--------------12------------12----10--12--10-7--------
------------------------------------------------------------------------7/9v--
------------------------------------------------------------------------------
 solo                                                                         

------------------------------------------------------------------------------
----------------------------------10v------10----10-10b11r10------------------
----------------------------------------------------10b11r10------------------
-------------------------7-7h9/12-------12----12-------------12---------------
--7h9-9-10-12-9-10h12h14----------------------------------------12-10-9-------
------------------------------------------------------------------------------
                                                                              

-------10-12-12b13r12-10--10h12------10----------|----------|-----------------
-10/12---------------------------13------13-10v--|----------|------9-------9--
-------------------------------------------------|----------|-8--8-8--8-8--8--
-------------------------------------------------|----------|-x--x-x--x-x--x--
-------------------------------------------------|----------|-11-1111-1111-11-
-------------------------------------------------|----------|-0--0-0--0-0--0--
                                                   prechorus  v  v ^  v ^  v  

-------|--------|--------------------------------------|----------------------
-9-----|--------|-3-2----3-2----3-2--------------------|-10-\7----------------
-8-8-8-|--------|-----3------3------0------------------|---------9/11\9----7--
-x-x-x-|--------|--------------------------------------|----------------------
-111111|--------|--------------------------------------|----------------------
-0-0-0-|--------|--------------------------------------|----------------------
 ^ v ^  chorus                                                                

-------------------------------|----------------------------------------------
-------------------------------|-10-\7-7v-------------------------------------
-7/9\7-7-------7--7/9--9/11\9--|------------9/11\9---7-7/9\7-7-------7--7/9---
---------9\7-------------------|-------------------------------9\7------------
-------------------------------|----------------------------------------------
-------------------------------|----------------------------------------------
                                 two times                                    

------------------------|--------------------------------------------5/7\5----
------------------------|-3-2----3-3---------------------------------5/7\5-15-
-9/11\9--7-7/9\7-7------|-----2--2-2-2-2--2--2/7---------------------------14-
-------------------9\7--|-----0--0-0-0-0--0--0---------------------0-------12-
------------------------|-----x------x-x--x--x-----------5--3/5\3-------------
------------------------|-----5------5-5--5--5/10-8-8-7--5--1/3\1-------------
                          v ^ v  ^ v ^ v  ^  v    ^ v ^  v mv   D t^ning   v  

-------------------------14--|------------------------------------------------
-7-----------------------15--|------------------------------------------------
---5h7r5h7r5h7r5h7r5\----14--|------------------------------------------------
-----------------------------|------------------------------------------------
-----------------------------|------------------------------------------------
-----------------------------|------------------------------------------------
 silently                v                                                    

Comments