Stone Temple Pilots - Atlanta Chords & Tabs

 

Atlanta Chords & Tabs

Stone Temple Pilots Chords & Tabs

Version: 3 Type: Tab 0 ratings
1 star 2 stars 3 stars 4 stars 5 stars
comments

Atlanta Tab

   
Stone Temple Pilots - Atlanta
From the "No 4" Album
Tabbed by jjhand

Main Riff - play 2x in intro, then 4x for verse

e|-0-----0-0-0--0-----0-0-0-|-0-----0-0-0--0---0---0---|
B|-0-----0-0-0--0-----0-0-0-|-0-----0-0-0--0---0---0---|
G|-1-----1-1-1--2-----2-2-2-|-4-----4-4-4--2---2---2---|
D|-2-----2-2-2--4-----4-4-4-|-5-----5-5-5--4---4---4---|
A|-2------------4-----4-4-4-|-5-----5-5-5--4---4---4---|
E|-0------------------------|--------------------------|


Chorus - play 2x, similarly

e|-7-----7--7--2---3---2---|-0-----0-0-----2---3---2---|
B|-5-----5--5--3---3---3---|-1-----1-1-----3---3---3---|
G|-5-----5--5--2---2---2---|-0-----0-0-----2---2---2---|
D|-5-----5--5--0-----------|-2-----2-2-----0-----------|
A|-0-----0--0--------------|---------------------------|
E|-------------------------|---------------------------|

e|-7-----7--7--2---3---2---|-0-----0-0-----0---0---0---|
B|-5-----5--5--3---3---3---|-1-----1-1----/3---5---3---|
G|-5-----5--5--2---2---2---|-0-----0-0-----0---0---0---|
D|-5-----5--5--0-----------|-2-----2-2----/4---4---4---|
A|-0-----0--0--------------|---------------------------|
E|-------------------------|---------------------------|

e|-7-----7--7--2---3---2---|-0-----0-0-----2---3---2---|
B|-5-----5--5--3---3---3---|-1-----1-1-----3---3---3---|
G|-5-----5--5--2---2---2---|-0-----0-0-----2---2---2---|
D|-5-----5--5--0-----------|-2-----2-2-----0-----------|
A|-0-----0--0--------------|---------------------------|
E|-------------------------|---------------------------|
[ Tab from: http://www.guitartabs.cc/tabs/s/stone_temple_pilots/atlanta_tab_ver_3.html ]
e|-7-----7--7--2---3---2---|-0-----0-0-----0----0-0-0--|
B|-5-----5--5--3---3---3---|-1-----1-1----/3----3-3-3--|
G|-5-----5--5--2---2---2---|-0-----0-0-----0----0-0-0--|
D|-5-----5--5--0-----------|-2-----2-2----/4----4-4-4--|
A|-0-----0--0--------------|---------------------------|
E|-------------------------|---------------------------|




Play Main Riff Again


Play Chorus Again




Bridge - Play Chords shown with same rhythm

e|-2--------3--------|-2--------3--------|-2--------2--------|-1------------|
B|-3--------3--------|-2--------3--------|-3--------2--------|-3------------|
G|-4--------4--------|-3--------4--------|-2--------3--------|-3------------|
D|-4--------5--------|-4--------5--------|-0--------4--------|-3------------|
A|-2--------5--------|-4--------5--------|----------4--------|-1------------|
E|----------3--------|-2--------3--------|----------2--------|--------------|


   Play 2 1/2 times (end on E chord)
e|-0------------|-1-------------|
B|-0------------|-3-------------|
G|-1------------|-3-------------|
D|-2------------|-3-------------|
A|-2------------|-1-------------|
E|-0------------|---------------|


Ending Arpeggio Part - 

e|---0---------|-------------|
B|-----1---3---|---1-0-------|
G|-----------2-|-----------0-|
D|-------0-----|---------4---|
A|-0-----------|-3----/5-----|
E|-------------|-------------|


Chorus Chords on are played to end Song


KEY
************************************

| /   slide up
| \   slide down
| h   hammer-on
| p   pull-off
| ~   vibrato
| +   harmonic
| x   Mute note

************************************
Comments