Stone Temple Pilots - Adhesive Chords & Tabs

 

Adhesive Chords & Tabs

Stone Temple Pilots Chords & Tabs

Version: 2 Type: Bass Tab 0 ratings
1 star 2 stars 3 stars 4 stars 5 stars
comments

Adhesive Bass Tab

Song:  Adhesive
Artist: Stone Temple Pilots
Album:  Tiny Music...
Tabbed By: The Khan (stpdood@home.com)

Verse - Just switch between A and E until the Chorus (follow the guitar)

Chorus
G---------------------------------------------------------------|
D-----------------4-44------44-------4-44----------4-44------44-|
A-2/16-16-16----------------------------------------------------|
E------------2-2-------2-22----2-2-2-------2-2h5-5------5-55----|

G------------------------|
D-------4-44--4-2-1-1----|
A-2-2-2---------------2--|
E------------------------|

Verse again

Chorus 2x        <-- Only play this section on 2x ----------------|
G------------|----------------------------------------------------|
D------------|-----4-44------44-------4-44----------4-44------44--|
A-2/16-16-16-|----------------------------------------------------|
E------------|-2-2------2-22----2-2-2-------2-2h5-5------5-55-----|

G-------|------------------|
D-------|-4-44--4-2-1-1----|
A-2-2-2-|---------------2--|
E-------|------------------|

Bridge
G-------------6-8-----------------9---9-999-7----------------------|
D-4-44-4-67-9-----------6-6---6-9-------------9-10----11h12p10-----|
A-----------------7---------9-------7--------------10--------------|
E--------------------0---------------------------------------------|
[ Tab from: http://www.guitartabs.cc/tabs/s/stone_temple_pilots/adhesive_btab_ver_2.html ]
G-------------------9-999-7----------------------------------------|
D-9-----9-10-12------------9--7---10----11h12h10-9------9-10-12----|
A---10----------7---------------7----10------------10--9-----------|
E-----------------0------------------------------------------------|

G------------------------------------|
D-9-9-9---9-10-12-8-8-8---88----8-0--|
A-------9---------------8----8-------|
E------------------------------------|

Verse during the trumpet solo, and during the next Verse of course

Chorus 2x
G--------------------------------------------------------------|
D----------------4-44------44-------4-44----------4-44------44-|
A-2/16-16-16---------------------------------------------------|
E------------2-2------2-22----2-2-2-------2-2h5-5------5-55----|

G-------|------------------|
D-------|-4-44--4-2-1-1----|(Don't play this second time through)
A-2-2-2-|---------------2--|
E-------|------------------|

Bridge
G-------------6-8-----------------9---9-999-7--------------------|
D-4-44-4-67-9-----------6-6---6-9-------------9-10----11h12p10---|
A-----------------7---------9-------7--------------10------------|
E--------------------0-------------------------------------------|

G-------------------9-999-7--------------------------------------|
D-9-----9-10-12------------9--7---10----11h12h10-9------9-10-12--|
A---10----------7---------------7----10------------10--9---------|
E-----------------0----------------------------------------------|

G------------------------------------|
D-9-9-9---9-10-12-8-8-8---88----8-0--|
A-------9---------------8----8-------|
E------------------------------------|

And that's it!  I have a five string, so I play that last line an octave lower.
If you can figure out an easy way to do it on a four string, it sounds much better.
Comments