Stone Temple Pilots - A Song For Sleeping Chords & Tabs

 

A Song For Sleeping Chords & Tabs

Stone Temple Pilots Chords & Tabs

Version: 1 Type: Tab 0 ratings
1 star 2 stars 3 stars 4 stars 5 stars
comments

A Song For Sleeping Tab

   
#----------------------------------PLEASE NOTE---------------------------------#
#This file is the author's own work and represents their interpretation of the #
#song. You may only use this file for private study, scholarship, or research. #
#------------------------------------------------------------------------------#

Stone Temple Pilots
A song for sleeping
tabbed by: Chris Magowan (theverve8@hotmail.com)

The fills might be a litle more complicated, just play around with 
them though also at the DaddA section there's a cool little fill there 
as well. e-mail me with corrections comments, etc. thanks. enjoy.

Intro:F# 
Fill during F#'s;
-----2--------
-2h4----------
--------3-----
--------------
--------------
--------------

Solo  
            
F#                                    DaddA       DaddG#
--------------------------------------------------------
-s7-s6-s6-----------------------------7s9-7s10-9--12s9--
-------------------6---------6--------------------------
----------8-8--6s8-----8-6s8----6ss8--------------------
--------------------------------------------------------
--------------------------------------------------------
       DaddA         DaddG3             F#  G    A
------s9-7-5------7s9-7-5-------------------------------
-9-10-------9-10---------s9-s9-7-10--9h7---7s9---------
------------------------------------------6-------------
--------------------------------------------------------
--------------------------------------------------------
--------------------------------------------------------
 
DaddA= x x 0 2 3 5
DaddG#= x x 0 2 3 4 
     B= 7 9 9 8 0 0 
     A= 5 7 7 6 0 0 
     G= 3 5 5 4 0 0   or  3 5 5 4 3 3 
    F#= 2 4 4 3 0 0   or  2 4 4 3 2 2 
     E= 0 2 2 1 0 0 

===========================================================================================================

Date: Thu, 7 Nov 1996 14:12:20 -0600
From: joe mama 
Subject: seven caged tigers solo and chords by stone temple pilots

From: m.wilson@mail.utexas.edu  (Mike Wilson)
Date: Thursday, November 7th, 1996

"Seven Caged Tigers" by Stone Temple Pilots

I saw a version of this posted, but it seems wrong to me.  This is my first
transcription, but i practically learned to play the guitar through
transcriptions like these, so I think I can handle it.  I gave the solo my
best effort, and I think it is mostly right, but if there are any
corrections, please let me know.



chords (I pretty much used mostly regular major chords, sometimes converted
into power chords)

G    355433
B    799877 or -244--
E    022100
D    -577--
D#   -688--
C    -355--
A#   688766



intro/verse riff

G - B - E
D - C - B  (after this, there is a 3-chord slide up, something like C-D-E)
E - D - C  C/B (this is a slide down to B before starting next progression)
G - B - E

solo

---------------------------------------------------------------
---------------------------------------------------------------
-----9--11--12--11--9--11p9--9--11--9----------------------6~--
--9------------------------------------9----5/7--9p7p5--8------
---------------------------------------------------------------
---------------------------------------------------------------


-----------------------------------------------10p8--10-------10p8--12p10-----
--------------/10-----------/10-----------/12------------/12---------------12-
--7--7--6--4-------9--9--9-------9--9--9--------------------------------------
------------------------------------------------------------------------------
------------------------------------------------------------------------------
------------------------------------------------------------------------------


-----------------/\----------10--------------------------/10-----------
--12--11--10--9------10--12------12---------------------------10-------
--12--11--10--9----------------------------5~--3~--2~------------------
-----------------------------------------------------------------------
-----------------------------------------------------------------------
-----------------------------------------------------------------------

the chords played during the bridge underneath the solo are a slight change
from the verse riff, altered to fit the solo.  I'm not exactly sure what
the chord progression is, but just fool around with the verse and change it
to fit the main notes of the solo and it should sound all right.



here is the progression of the song

intro/verse
chorus
verse
chorus
bridge + solo
chorus

==============================================================================================================
[ Tab from: http://www.guitartabs.cc/tabs/s/stone_temple_pilots/a_song_for_sleeping_tab.html ]
Stone Temple Pilots 
”Sour Girl” 
 
Tabs: Song: "Sour Girl" 
Band: Stone Temple Pilots 
Album: No. 4 
Tabbed by: Zack 
Email: Serpaco007@aol.com 
Date: 5/20/00 
 
This TAB should be pretty darn close. I saw STP perform this song on  
Leno the other night so it's quite accurate. 
 
 
Sour Girl 
 
Chords: 
G2? {xx5435} 
F2? {xx7565} 
F {133211} 
G {355433} 
Bb2 {688766} 
Bb {x1333x} 
C {8,10,10,9,8,8} 
D {10,12,12,11,10,10} I'm getting a headache... 
 
Intro: Twice
 
e---------------------------------------------------1/3--3--------------- 
B---------------------------------------------------1/3--3--------------- 
G---------------------------------------------------3/4--4--------------- 
D----------------------------------------------3--3-3/5--5--------------- 
A----5-7-8-8-8-7-----5-6-6-6-5-----------------3--3-3/5--5--------------- 
E-----------------8-------------7--5-8-8-8-7---1--1-1/3--3--------------- 
 
@ Use your pinky to hammer over onto that G string. 
 
Verses: @
 
e----5---5-----1---3--3--3------------------------------------------- 
B----3---6-----1---3--3--3------------------------------------------- 
G----4---5-----2---4--5--4------------------------------------------- 
D----5---7-----3---5--x--5------------------------------------------- 
A--------------3---5--5--5------------------------------------------- 
E--------------1---3--3--3------------------------------------------- 
 
 
 
I'm going to put 2 different choruses here. The first chorus is the  
close to actual chords Dean Deleo uses. I think he changes up the order, so  
feel free to interchange the chord shapes how you like. The second chorus is an  
easier version. It's what I played before I saw them perform it on Leno.  
Sorry, no rhythm is implied here. Use your imagination. 
 
Chorus: First
  
* * 
e----6-----5-----8-----3---------x-----1-----3----8-----10---------------- 
B----6-----6-----8-----3---------3-----1-----3----8-----10---------------- 
G----7-----5-----9-----4---------3-----2-----4----9-----11---------------- 
D----8-----7-----10----5---------3-----3-----5----10----12---------------- 
A----8-----x-----10----5---------1-----3-----5----10----12---------------- 
E----6-----5-----8-----3---------x-----1-----3----8-----10---------------- 
Bb F C G  
Bb F G C D 
* = single strum 
 
Chorus: Second
 
e----6-----1-----8-----3---------6-----1-----3---------------------------- 
B----6-----1-----8-----3---------6-----1-----3---------------------------- 
G----7-----2-----9-----4---------7-----2-----4---------------------------- 
D----8-----3-----10----5---------8-----3-----5---------------------------- 
A----8-----3-----10----5---------8-----3-----5---------------------------- 
E----6-----1-----8-----3---------6-----1-----3---------------------------=

==============================================================================================================

S.T.P - "Still Remains"
From the Album Purple
Words by Weiland
Music by DeLeo and DeLeo

Transcribed by Travis Miguez 

A few notes:

This is only my interpretation of the song. The actual guitar 
part is much more complex and may even involve alternate 
tunings.  My version is based for an acoustic guitar (i.e. 
those camping trips) as I have tried to include base notes 
which may or may not be actually played by Dean.  If you are 
looking for the note for note version of this song - buy the 
book!!!!!

P.S. If your fingers are squeeky clean - then so too will
your song be as there is along of fingertip sliding.


Janna Leigh Mount - If you should die before me, ask if you 
could bring a friend.


Intro:
  G(no5) 
    |A(no5)                A(add4)    
    | |                      |    x 3
||----------0--0-------------------||-0----0-----0----------|
||----------0--0-------------------||-0----0-----0----------|
||*-4/6-6-6-6--6-4/6-6-6-4/6-7-6--*||-6----9----14----------|
||--5/7-7-7-7--7-5/7-7-7-5/7-7-7---||-7----9----14----------|
||*-2/4-4-4-4--4-2/4-4-4-2/4-5-4--*||-4----7----12----------|
||--3/5-5-5-5--5-3/5-5-5-3/5-5-5---||-5----8----13----------|

*N.B.  best fingering for the A(no 5) is:

 4th | 1 | | | |  (you get used to it!!)    | | | | | |
 5th 2 | | | | |                            2 1 | | | |
 6th | | | 3 | |   * to play the A(add 4) : | | |(3)| |
 7th | | 4 | | |     bridge your pinkie     | | 4 4 | |
     | | | | | |     over the two strings   | | | | | |
                     and slide your first 
                     finger up one fret. (You might get away             
                     with not sliding your finger up by just 
                     creating a pseudo-A(add 4) with your 
                     4th finger bridging the two strings.



and the last two chords of the intro are of the form:

     | 1 | | | |      just reverse your last two fingers.
     2 | | | | |
     | | 3 4 0 0
     | | | | | |
     | | | | | |

Verse (use intro riff 4 times - not the last three chords)


Our bed we live, our bed we sleep
Making love and I become you
Flesh is warm with naked feet
Stabbing thorns and you become me

Intro Chorus:

|-0--0--0--0--0--0--0--0-----------|-------------------------
|-0--0--0--0--0--0--0--0-----------|-------------------------
|-6--6--2--2--4--4--4--4-----------|-------------------------
|-7--7--3--3--5--5--5--5-----------|-------------------------
|-4--4--0--0--2--2--2--2-----------|-------------------------
|-5--5--1--1--3--3--3--3-----------|-------------------------     
         

Chorus:

    F     Fdim7      G      Dsus2  x3
|---1-------0--------3--------0----||------------------------
|---1-------0--------3--------3----||------------------------
|---2-------2--------0--------2----||------------------------
|---3-------3--------0--------0----||------------------------
|---3-------3--------2--------0----||------------------------
|---1-------1--------3-------------||------------------------
   (T)
 * Play the base note with your thumb.

==============================================================================================================

Date: Sat, 30 Nov 1996 15:20:39 +0100
From: Oliver St John 
Subject: TAB:Still Remains by Stone Temple Pilots

Still Remains by Stone Temple Pilots    (from the album "Purple")
---------------------------------
Transcribeded by: Oliver St John (stjohn@enter.it)...who would welcome
corrections!

Chords:
Here's what I used, just in case I've messed the names up....
A - x02220
E - 022100
C#m7 - x35343
Fmaj7 - x33210
G6 - x55430
A/E - 077650
C - x32010
D - xx0232
Em - 022003
Am - x02210
F - 133211

Intro:
e------------------------------------------                  -----------
B--0--2--2--2--2---0--2--2--2--0--2--3--2--                  --0--2--0--
G--2--2--2--2--2---2--2--2--2--2--2--2--2--                  --2--2--1--
D--2--2--2--2--2---2--2--2--2--2--2--2--2--                  --2--2--2--
A--0--0--0--0--0---0--0--0--0--0--0--0--0--                  --0--0--2--
E------------------------------------------three times, then --------0--
Comments