Stone Sour - Tumult Chords & Tabs

 

Tumult Chords & Tabs

Stone Sour Chords & Tabs

Version: 1 Type: Tab 0 ratings
1 star 2 stars 3 stars 4 stars 5 stars
comments

Tumult Tab

   
Band: Stone Sour
Song: Tumult
Album: Stone Sour
Tuning: Drop D, down 1 1/2 steps (B,F#,B,E,G#,C#)
Tabbed by Raziel Abyss (Psycho_Freek_No1@hotmail.com)

Jim=Rhythm
Josh=Lead


    Intro 1                            (Do Not Do 4th Time)
 C#|--------------------------------------------------------
 G#|--------------------------------------------------------
 E |------------------------------------16-16-16-17-18------  4x
 B |-x-x-x-x-14-x-x-14-12-15-x-x-x-x-14--x--x--x--x--x------
 F#|-x-x-x-x-14-x-x-14-12-15-x-x-x-x-14-14-14-14-15-16------
 B |-x-x-x-x-14-x-x-14-12-15-x-x-x-x-14---------------------


   "GOD DAMN YOU!!!!"

    Intro 2
 C#|--------------------------------------------------------
 G#|--------------------------------------------------------
 E |--------------------------------------------------------  
 B |-x-x-x-x-14-x-x-14-12-15-x-x-x-x-14---------------------  8x
 F#|-x-x-x-x-14-x-x-14-12-15-x-x-x-x-14---------------------
 B |-x-x-x-x-14-x-x-14-12-15-x-x-x-x-14---------------------


    Verse
 C#|-------------------------------------------------------
 G#|-------------------------------------------------------
 E |-------------------------------------------------------
 B |-------------------14--------------------14------------
 F#|-------------------14--------------------14------------
 B |-------------------14--------------------14------------

"...Must-of Been a Bitch   Must of Been a Pain"

 C#|-------------------------------------------------------
 G#|-------------------------------------------------------
 E |-------------------------------------------------------
 B |-------------------------14----------------------------
 F#|-------------------------14----------------------------
 B |-------------------------14----------------------------

  "Take Me Off The "Innocent"  Put Me In Your Vein!!!!!!"

    Chorus
 C#|--------------------------------------------------------
 G#|--------------------------------------------------------
 E |--------------------------------------------------------  
 B |-x-x-x-x-14-x-x-14-12-15--------------------------------  4x
 F#|-x-x-x-x-14-x-x-14-12-15--------------------------------
 B |-x-x-x-x-14-x-x-14-12-15--------------------------------

     Verse
 C#|-------------------------------------------------------
 G#|-------------------------------------------------------
 E |-------------------------------------------------------
 B |-------------------14--------------------14------------
 F#|-------------------14--------------------14------------
 B |-------------------14--------------------14------------

 "..Mustn't take offence   Mustn't Take a Bow"

 C#|-------------------------------------------------------
 G#|-------------------------------------------------------
 E |-------------------------------------------------------
 B |-------------------------14----------------------------
 F#|-------------------------14----------------------------
 B |-------------------------14----------------------------
[ Tab from: http://www.guitartabs.cc/tabs/s/stone_sour/tumult_tab.html ]
       "Used To Be a Derelict  NOW I HAVE TO LIVE WITH IT!!!"

    Chorus
 C#|--------------------------------------------------------
 G#|--------------------------------------------------------
 E |--------------------------------------------------------  
 B |-x-x-x-x-14-x-x-14-12-15--------------------------------  8x
 F#|-x-x-x-x-14-x-x-14-12-15--------------------------------
 B |-x-x-x-x-14-x-x-14-12-15--------------------------------


    Bridge Part 1
 C#|-------------------------------------------------------
 G#|-------------------------------------------------------
 E |-------------------------------------------------------
 B |-14-x-x-x-x-14-14--------------------------------------  12x
 F#|-14-x-x-x-x-14-14--------------------------------------
 B |-14-x-x-x-x-14-14--------------------------------------

    Chorus 
 C#|--------------------------------------------------------
 G#|--------------------------------------------------------
 E |--------------------------------------------------------  
 B |-x-x-x-x-14-x-x-14-12-15--------------------------------  8x
 F#|-x-x-x-x-14-x-x-14-12-15--------------------------------
 B |-x-x-x-x-14-x-x-14-12-15--------------------------------

    Bridge Part 2 (O.K. This Is Bass But I Translated It To Guitar)
 C#|-------------------------------------------------------
 G#|-------------------------------------------------------
 E |-------------------------------------------------------
 B |-------------------------------------------------------  8x
 F#|-------------------------------------------------------
 B |--2--3--0----------------------------------------------

    Bridge End Part 1 ("Got No Time....") You Barely Hear It Underneath
    The Double Bass And Screaming
 C#|-------------------------------------------------------
 G#|-------------------------------------------------------
 E |-------------------------------------------------------
 B |-14-x-x-x-x-14-14--------------------------------------  About 8x
 F#|-14-x-x-x-x-14-14--------------------------------------
 B |-14-x-x-x-x-14-14--------------------------------------

    Ending (Jim)
 C#|--------------------------------------------------------
 G#|--------------------------------------------------------
 E |--------------------------------------------------------  
 B |-x-x-x-x-14-x-x-14-12-15--------------------------------  8x
 F#|-x-x-x-x-14-x-x-14-12-15--------------------------------
 B |-x-x-x-x-14-x-x-14-12-15--------------------------------

   Then After 4 Times Josh Does This 
 C#|--------------------------------------------------------
 G#|--------------------------------------------------------
 E |--------------------------------------------------------  
 B |-x-x-x-x-14-x-x-----------------------------------------  4x
 F#|-x-x-x-x-14-x-x-15-14-17--------------------------------
 B |-x-x-x-x-14-x-x-----------------------------------------


That's it. Hope You like It.... Any Comments Or Corrections Email Me Because
I Doubt I'm  Going To look At The Tab Area Very Often. Oh yea This Is My First
Tab Ive Written.
Comments