Stone Sour - Through Glass Chords & Tabs

 

Through Glass Chords & Tabs

Stone Sour Chords & Tabs

Version: 1 Type: Tab 1 rating
1 star 2 stars 3 stars 4 stars 5 stars
comments

Through Glass Tab

   
Tuning:Eb,Ab,Db,Gb,Bb,Eb (½ step down)

Listen to the song for the strumming patterns

e|---------------------------------------------------------------------------|
B|-----0-------0-------------------------------------------------------------|
G|---0-------0-----------0------------0--------------------------------------|
D|---------------------2---2--------2---2------------------------------------|
A|-3-------5---------2-------2----2-------2----------------------------------|X2
E|-----------------0------------0--------------------------------------------|
[ Tab from: http://www.guitartabs.cc/tabs/s/stone_sour/through_glass_tab.html ]
e|--0----0---0---0--------------------------------------------------------------|
B|--0----0---0---3--------------------------------------------------------------|
G|--0----0---0---2--------------------------------------------------------------|
D|--x----x---2---0--------------------------------------------------------------|Verse
A|--3----5---2------------------------------------------------------------------|
E|-----------0------------------------------------------------------------------|

e|-------0---0---------------------------------------------------------------|
B|-------0---3---------------------------------------------------------------|
G|-5--7--2---2---------------------------------------------------------------|
D|-5--7--2---0---------------------------------------------------------------|Chorus
A|-3--5--2-------------------------------------------------------------------|
E|-------0-------------------------------------------------------------------|

 That’s about it for the acoustic/Rhythm parts.


| /  slide up
| \  slide down
| h  hammer-on
| p  pull-off
| ~  vibrato
| +  harmonic
| x  Mute note
Comments