Stone Sour - The Wicked Chords & Tabs

 

The Wicked Chords & Tabs

Stone Sour Chords & Tabs

Version: 1 Type: Tab 0 ratings
1 star 2 stars 3 stars 4 stars 5 stars
comments

The Wicked Tab

ITS TUNED B F#B E G#C#
i tabed this song cuz no one else tabed it.if u dont like it i dont give cuz u didnt tab it lol

*=mute
p=pull off


intro  00:29 sec
----------------------------------------------------|
----------------------------------------------------|
----------------------------------------------------|
----------------------------------------------------|
-0-0-0-0--0-0-0-0---------0-0-0-0---0-1-0-1-0-1-0-0-|
-0-0-0-0--O-0-0-0-0-1/0/3-0-0-0-0---0-1-0-1-0-1-0-0-|
 * * * *  * * * *       p  * * * *   * * * * * * * *


outro 00:30-00:36
-------------------------------------------------|
-------------------------------------------------|
-------------------------------------------------| x3
-------------------------------------------------|
-0-5/1-0-0-5/1-0-0-5/1-0-0-1---------------------|
-0-5/1-0-0-5/1-0-0-5/1-0-0-1---------------------|


00:37-01:06 verese
---------------|
---------------|
---------------|
---------------|
-0-0--0-0--0-0-|
-0-0--0-0--0-0-|
 * *  * *  * *


pre chorus 01:07-01:20
---------------------------------|
---------------------------------|this part sounds like if its played once so
---------------------------------| i put it like it sounds
---------------------------------| x1
--5---7----4--------2---4-5------| (oh suffer to be mines)
--5---7----4--------2---4-5------|

chorus 01:21-01:35
-------------------------------------|
-------------------------------------|
-------------------------------------|
-------------------------------------|
-0-0-1-0--0-0-1-0-1-0--0-0-1-0-5/7-6-|
-0-0-1-0--0-0-1-0-1-0--0-0-1-0-5/7-6-|
[ Tab from: http://www.guitartabs.cc/tabs/s/stone_sour/the_wicked_tab.html ]
01:36-01:44
-------------------------------------------------|
-------------------------------------------------|
-------------------------------------------------| x3
-------------------------------------------------|
-0-5/1-0-0-5/1-0-0-5/1-0-0-1---------------------|
-0-5/1-0-0-5/1-0-0-5/1-0-0-1---------------------|


2nd  verese 01:45-02:13
---------------|
---------------|
---------------|
---------------|
-0-0--0-0--0-0-|
-0-0--0-0--0-0-|
 * *  * *  * *
pre chorus 02:14-02:26
--------------------------------|
--------------------------------|
--------------------------------|
--------------------------------|
--5---7----4--------2---4-5-----|
--5---7----4--------2---4-5-----|


break of the song
--------------|
--------------|
--------------| just listen to this part in the song
--------------|
-1---0-1-0-0--|
-1---0-1-0-0--| x3


then it goes staight to
-------------------------------------------------|
-------------------------------------------------|
-------------------------------------------------| x3
-------------------------------------------------|
-0-5/1-0-0-5/1-0-0-5/1-0-0-1---------------------|
-0-5/1-0-0-5/1-0-0-5/1-0-0-1---------------------|

verese
---------------|
---------------|
---------------|
---------------|
-0-0--0-0--0-0-|
-0-0--0-0--0-0-|
 * *  * *  * *
pre chorus
-------------------------------|
-------------------------------|
-------------------------------|
-------------------------------|
--5---7----4--------2---4-5----|
--5---7----4--------2---4-5----|

chorus
-------------------------------------|
-------------------------------------|
-------------------------------------|
-------------------------------------|
-0-0-1-0--0-0-1-0-1-0--0-0-1-0-5/7-6-|
-0-0-1-0--0-0-1-0-1-0--0-0-1-0-5/7-6-|

-------------------------------------------------|
-------------------------------------------------|
-------------------------------------------------| x3
-------------------------------------------------|
-0-5/1-0-0-5/1-0-0-5/1-0-0-1---------------------|
-0-5/1-0-0-5/1-0-0-5/1-0-0-1---------------------|
Comments