Stone Sour - Rules Of Evidence Chords & Tabs

 

Rules Of Evidence Chords & Tabs

Stone Sour Chords & Tabs

Version: 1 Type: Tab 0 ratings
1 star 2 stars 3 stars 4 stars 5 stars
comments

Rules Of Evidence Tab

Band- Stone Sour
Song- Rules Of Evidence

x4
|--------------------------------------------|
|--------------------------------------------|
|--------------------------------------------|
|--------------------------------------------|
|---0-0-0-3-----0-0-0-5-0-0-0-0-0-3--2--1--2-|
|---0-0-0-3-----0-0-0-5-0-0-0-0-0-3--2--1--2-|
    . . .       . . .   . . . . .   
            P.M.
 x2                              
|-------------------------------|
|-------------------------------|
|-------------------------------|
|-------------------------------|
|--0-0-3-0---0-3-0---0-3-0-6--5-|
|--0-0-3-0---0-3-0---0-3-0-6--5-|

x4
|-------------------------------|
|-------------------------------|
|-------------------------------|
|-------------------------------|
|--0-0-3-0---0-3-0---0-3-0------|
|--0-0-3-0---0-3-0---0-3-0-6--5-|
   | ________P.M._________| 


x2
|-------------------|
|-------------------|
|--5---3---2---3--6-|
|-------------------|
|-------------------|
|-------------------|

|------------------|
|------------------|
|------------------|
|--5--7--5-5--8--7-|
|--5--7--5-5--8--7-|
|--3--5--3-3--6--5-|


|---------------------------|
|---------------------------|
|---------------------------|
|---------------------------|
|--0-0-0-0-1--0-0-0-1-0-1-0-|
|--0-0-0-0-1--0-0-0-1-0-1-0-|
  | ________P.M.__________ |

|------------------|
|------------------|
|------------------|
|--5--7--5-5--8--7-|
|--5--7--5-5--8--7-|
|--3--5--3-3--6--5-|

x3
|----------------------------|
|----------------------------|
|---------7-------5-------3--|
|---------7-------5-------3--|
|---------5-------3-------1--|
|--0-0-0-----0-0----0-0----0-|


|-------------------------|
|-------------------------|
|-------------------------|
|-------------------------|
|--0-0-0-1--0-0-0-1-0-1-0-|
|--0-0-0-1--0-0-0-1-0-1-0-|
   | ______P.M.________|


|--------------------------------|
|--------------------------------|
|--------------------------------|
|--9-9-9-9-9-9-9-9-9-9-9-9--7--5-|
|--9-9-9-9-9-9-9-9-9-9-9-9--7--5-|
|--7-7-7-7-7-7-7-7-7-7-7-7--5--3-|

[ Tab from: http://www.guitartabs.cc/tabs/s/stone_sour/rules_of_evidence_tab.html ]
|---------------------------------|
|---------------------------------|
|---------------------------------|
|--9-9-9-9-9-9-9-9-9-9--7-7--5--5-|
|--9-9-9-9-9-9-9-9-9-9--7-7--5--5-|
|--7-7-7-7-7-7-7-7-7-7--5-5--3--3-|


|--------------------------------|
|--------------------------------|
|--------------------------------|
|--9-9-9-9-9-9-9-9-9-9-9-9--7--5-|
|--9-9-9-9-9-9-9-9-9-9-9-9--7--5-|
|--7-7-7-7-7-7-7-7-7-7-7-7--5--3-|


|---------------------------------|
|---------------------------------|
|---------------------------------|
|--9-9-9-9-9-9-9-9-9-9--7-7--5--5-|
|--9-9-9-9-9-9-9-9-9-9--7-7--5--5-|
|--7-7-7-7-7-7-7-7-7-7--5-5--3--3-|


x4
|-------------------------------|
|-------------------------------|
|-------------------------------|
|-------------------------------|
|--0-0-3-0---0-3-0---0-3-0------|
|--0-0-3-0---0-3-0---0-3-0-6--5-|
   |_________P.M._________| 


x2
|-------------------|
|-------------------|
|--5---3---2---3--6-|
|-------------------|
|-------------------|
|-------------------|


|------------------|
|------------------|
|------------------|
|--5--7--5-5--8--7-|
|--5--7--5-5--8--7-|
|--3--5--3-3--6--5-|


|---------------------------|
|---------------------------|
|---------------------------|
|---------------------------|
|--0-0-0-0-1--0-0-0-1-0-1-0-|
|--0-0-0-0-1--0-0-0-1-0-1-0-|
  | ________P.M.__________ |

|------------------|
|------------------|
|------------------|
|--5--7--5-5--8--7-|
|--5--7--5-5--8--7-|
|--3--5--3-3--6--5-|


x3
|----------------------------|
|----------------------------|
|---------7-------5-------3--|
|---------7-------5-------3--|
|---------5-------3-------1--|
|--0-0-0-----0-0----0-0----0-|


|-------------------------|
|-------------------------|
|-------------------------|
|-------------------------|
|--0-0-0-1--0-0-0-1-0-1-0-|
|--0-0-0-1--0-0-0-1-0-1-0-|
   | ______P.M.________|






x3
|----------------------------|
|----------------------------|
|---------7-------5-------3--|
|---------7-------5-------3--|
|---------5-------3-------1--|
|--0-0-0-----0-0----0-0----0-|


|-------------------------|
|-------------------------|
|-------------------------|
|-------------------------|
|--0-0-0-1--0-0-0-1-0-1-0-|
|--0-0-0-1--0-0-0-1-0-1-0-|
   | ______P.M.________|
Comments