Stone Sour - Orchids Chords & Tabs

 

Orchids Chords & Tabs

Stone Sour Chords & Tabs

Version: 5 Type: Tab 0 ratings
1 star 2 stars 3 stars 4 stars 5 stars
comments

Orchids Tab

tuned to C#, w/ Drop-B tuning

INTRO: CLEAN
C#|-------------------------------------|
G#|-------------------------------------|
E |-------------------------------------|
b |-------------------------------------|
F#|--------------0----------------------|
B |-0-0-12h13-12---0-0-12-12h15-13-12-0-|
   2X

VERSE: DISTORTION-OVERDRIVE(GUITARS 1 & 2)
C#|-------------------------------------|
G#|-------------------------------------|
E |-------------------------------------|
b |-------------------------------------|
F#|-0-0-0--0-0-0--0-0-0--0-0-0--0-0-0---|
B |-0-0-0--0-0-0--0-0-0--0-0-0--0-0-0---|

GTR 1:
C#|-----------------------------------|
G#|-----------------------------------|
E |-----------------------------------|
b |-0-0-0--0-0-0----------------------|
F#|-0-0-0--0-0-0--------5-------------|
B |-0-0-0--0-0-0--0h1/3-0-------------|

GTR 2:
C#|-----------------------------------|
G#|-----------------------------------|
E |---------------------7-------------|
b |-0-0-0--0-0-0--3p0-3-0-------------|
F#|-0-0-0--0-0-0----------------------|
B |-0-0-0--0-0-0----------------------|
[ Tab from: http://www.guitartabs.cc/tabs/s/stone_sour/orchids_tab_ver_5.html ]
PRE CHORUS: (BOTH GTRS)
C#|-----------------------------------|
G#|-----------------------------------|
E |-7-5-8-10--7-5-8-------------------|
b |-X-X-X-X---X-X-X-------------------|
F#|-5-3-6-8---5-3-8-------------------|
B |-----------------------------------|
 3x

THEN:
C#|-----------------------------------|
G#|-----------------------------------|
E |-7-5-8-10---3-7--------------------|
b |-X-X-X-X----X-X--------------------|
F#|-5-3-6-8----1-5--------------------|
B |-----------------------------------|

CHORUS: 
GTR 1
C#|-----------------------------------|
G#|-----------------------------------|
E |-----------------------------------|
b |-0-0-0-3--0-6-5--0-0-0-3--0-6-5----|
F#|-0-0-0-3--0-6-5--0-0-0-3--0-6-5----|
B |-0-0-0-3--0-6-5--0-0-0-3--0-6-5----|

C#|-----------------------------------|
G#|-----------------------------------|
E |-----------------------------------|
b |-0-0-0-3--0-6-5-1--1---------------|
F#|-0-0-0-3--0-6-5-1--1---------------|
B |-0-0-0-3--0-6-5-1--1---------------|
   2x

BRIDGE, CLEAN W/PHASE-SHIFTER, DELAY, CHORUS & WAH:
C#|-----------------------------------|
G#|-----------------------------------|
E |-----------------------------------|
b |-0-0-12-12h13-12---0-0-12-12h15-13-|
F#|-----------------------------------|
B |-----------------------------------|
Comments