Stone Sour - Orchids Chords & Tabs

 

Orchids Chords & Tabs

Stone Sour Chords & Tabs

Version: 2 Type: Tab 0 ratings
1 star 2 stars 3 stars 4 stars 5 stars
comments

Orchids Tab

   
Song: Orchids
Artist: Stone Sour
Album: Stone Sour
Tabbed by: Christian / silent_warrior_@hotmail.com

Tuning: B F# B E G# C#

h - Hammer on
p - Pull off
PM - Palm mute


Intro (clean)
|-------------------|
|-------------------|
|-------------------| x4
|-----------3-3h4-3-|
|-5-5h6-5-----------|
|-------------------|


Intro/Verse - Repeat 3 times
|---------------|     |--------|
|---------------|     |--------| 
|---------------| x4  |--------| x1 
|-0--0-0--0-0-0-|     |-1p0----|
|-0--0-0--0-0-0-|     |------5-|
|-0--0-0--0-0-0-|     |--------|


Pre-chorus
|-------------------|
|-------------------|
|-7-5-7--10---7-5-7-| x4
|-7-5-7--10---7-5-7-|
|-5-3-5---8---5-3-5-|
|-------------------|


Chorus - Repeat 2 times
|-------------|     |-----|
|-------------|     |-----|
|-------------| x3  |-----| x1
|-0-0-1-1-6-5-|     |-3-3-|
|-0-0-1-1-6-5-|     |-3-3-|
|-0-0-1-1-6-5-|     |-3-3-|


Bridge 1
|-----------------------|
|-----------------------|
|-----------------------| x2
|-0--0-0-0-0-0--0-0-0-0-|
|-0--0-0-0-0-0--0-0-0-0-|
|-0--0-0-0-0-0--0-0-0-0-|
PM-  - - - - -  - - - -

[ Tab from: http://www.guitartabs.cc/tabs/s/stone_sour/orchids_tab_ver_2.html ]
Chorus - Repeat 2 times
|---------------|     |--------|
|---------------|     |--------| 
|---------------| x4  |--------| x1
|-0--0-0--0-0-0-|     |-1p0----|
|-0--0-0--0-0-0-|     |------5-|
|-0--0-0--0-0-0-|     |--------|


Pre-chorus
|-------------------|
|-------------------|
|-7-5-7--10---7-5-7-| x4
|-7-5-7--10---7-5-7-|
|-5-3-5---8---5-3-5-|
|-------------------|


Chorus - Repeat 2 times
|-------------|     |-----|
|-------------|     |-----|
|-------------| x3  |-----| x1
|-0-0-1-1-6-5-|     |-3-3-|
|-0-0-1-1-6-5-|     |-3-3-|
|-0-0-1-1-6-5-|     |-3-3-|


Bridge 2
|-------------------|
|-------------------|
|-------------------| x4
|-----------3-3h4-3-|
|-5-5h6-5-----------|
|-------------------|


Repeat 4 times
|---------------|     |--------|
|---------------|     |--------| 
|---------------| x4  |--------| x1
|-0--0-0--0-0-0-|     |-1p0----|
|-0--0-0--0-0-0-|     |------5-|
|-0--0-0--0-0-0-|     |--------|


Pre-chorus
|-------------------|
|-------------------|
|-7-5-7--10---7-5-7-| x4
|-7-5-7--10---7-5-7-|
|-5-3-5---8---5-3-5-|
|-------------------|


Chorus - Repeat 2 times
|-------------|     |-----|
|-------------|     |-----|
|-------------| x3  |-----| x1
|-0-0-1-1-6-5-|     |-3-3-|
|-0-0-1-1-6-5-|     |-3-3-|
|-0-0-1-1-6-5-|     |-3-3-|


Outro
|-----------------------|
|-----------------------|
|-----------------------| x8
|-0--0-0-0-0-0--0-0-0-0-|
|-0--0-0-0-0-0--0-0-0-0-|
|-0--0-0-0-0-0--0-0-0-0-|
PM-  - - - - -  - - - -

Comments