Stone Sour - Orchids Chords & Tabs

 

Orchids Chords & Tabs

Stone Sour Chords & Tabs

Version: 1 Type: Tab 0 ratings
1 star 2 stars 3 stars 4 stars 5 stars
comments

Orchids Tab

   
Intro-Guitar 1
e---------------------------------------------
B---------------------------------------------
G---------------------------------------------
D---------------------------------------------
A-0-2-0-2h3-2-0-2-0-3h5-3-0-2-0-2h3-2--2-3h5-3
E-------------------------------------0-0-----
Verse-Both Guitars
e-------------------------
B-------------------------
G-------------------------
D-2-2-2--2-2-2------------
A-2-2-2--2-2-2-0h2-0h3-0h5
E-2-2-2--2-2-2------------
Pre-Chorus
Guitar 1            Guitar 2
e------------------|------------------
B------------------|------------------
G------------------|-4-4-4-5-7-4-4-4-5
D-2-2-2-3-5-2-2-2-3|-x-x-x-x-x-x-x-x-x
A-2-2-2-3-5-2-2-2-3|-2-2-2-3-5-2-2-2-3
E-2-2-2-3-5-2-2-2-3|------------------
Chorus-Both Guitars
e------------------------|-------
B------------------------|-------
G------------------------|-------
D-2-2-2-3-5-0-2-2-2-3-5-0|5-x-5-5
A-2-2-2-3-5-0-2-2-2-3-5-0|5-x-5-5
E-2-2-2-3-5-0-2-2-2-3-5-0|5-x-5-5
Brige-Guitar 1
e------------------------
B------------------------
G-2-4-2-4h5-4-2-4-2-5h7-5
D------------------------
A------------------------
E------------------------
Here's a part i think is played after the 
Chorus...i forgot when its played
e------
B------
G------
D-2-2-2
A-2-2-2
E-2-2-2
^Kinda like the verse but a different rhythm
You'll get it.. it's simple
Well that's it...later

[ Tab from: http://www.guitartabs.cc/tabs/s/stone_sour/orchids_tab.html ]
Comments