Stone Sour - Orchids Chords & Tabs

 

Orchids Chords & Tabs

Stone Sour Chords & Tabs

Version: 2 Type: Bass Tab

Orchids Bass Tab

Intro 2X
G--------------------------------------------------------------------|
D-----9-9h10--9-------9-9h12--10-------9-9h10--9-------9-9h12--10----|
A---9---------------9----------------9-----------9---9---------------|
E--------------------------------------------------------------------|
B-0---------------0----------------0---------------0-----------------|

Verse

Part 1 - 2X
G--------------------------------------------------------------------|
D--------------------------------------------------------------------|
A--------------------------------------------------------------------|
E------------------------------------------------------8p7-8p7-------|
B-0-0-0---0-00---0-0-0---0-00---0-0-0---0-00--0-0-0------------------|

Part 2
G--------------------------------------------------------------------|
D--------------------------------------------------------------------|
A--------------------------------------------------------------------|
E--------------------------------------------------------------------|
B-0-0-0-0-0-0-0-0-0-0-0-0-0-0-0-0-0-0-0-0-0-0-0-0-0-0-0-0-0-0-0-0----|


Pre-Chorus 4X
G--------------------------------------------------------------------|
D--------------------------------------------------------------------|
A--------------------------------------------------------------------|
E-9-7--8~--/10--9-8-7~-----------------------------------------------|
B--------------------------------------------------------------------|

Chorus 2X
G----------------------------------------------------------------------------|
D----------------------------------------------------------------------------|
A----------------------------------------------------------------------------|
E----------------------------------------------------------------------------|
B-0--0--3-0--6-5�0--0--3-0--6-5-0--0--3-0--6-5---3--3-3---3-3~--------|

Pre-Verse � 2X
G--------------------------------------------------------------------|
D--------------------------------------------------------------------|
A--------------------------------------------------------------------|
E--------------------------------------------------------------------|
B-0-0-00-0-0000-00---------------------------------------------------|

Verse 2

Part 1 (just once this time)
G--------------------------------------------------------------------|
D--------------------------------------------------------------------|
A--------------------------------------------------------------------|
E------------------------------------------------------8p7-8p7-------|
B-0-0-0---0-00---0-0-0---0-00---0-0-0---0-00--0-0-0------------------|

Part 2
G--------------------------------------------------------------------|
D--------------------------------------------------------------------|
A--------------------------------------------------------------------|
E--------------------------------------------------------------------|
B-0-0-0-0-0-0-0-0-0-0-0-0-0-0-0-0-0-0-0-0-0-0-0-0-0-0-0-0-0-0-0-0----|
[ Tab from: http://www.guitartabs.cc/tabs/s/stone_sour/orchids_btab_ver_2.html ]
Pre-Chorus 4X
G--------------------------------------------------------------------|
D--------------------------------------------------------------------|
A--------------------------------------------------------------------|
E-9-7--8~--/10--9-8-7~-----------------------------------------------|
B--------------------------------------------------------------------|

Chorus 2X
G----------------------------------------------------------------------------|
D----------------------------------------------------------------------------|
A----------------------------------------------------------------------------|
E----------------------------------------------------------------------------|
B-0--0--3-0--6-5�0--0--3-0--6-5-0--0--3-0--6-5---3--3-3---3-3~--------|

Interlude (same as intro) 2X play the
G--------------------------------------------------------------------|
D-----9-9h10--9-------9-9h12--10-------9-9h10--9-------9-9h12--10----|
A---9---------------9----------------9-----------9---9---------------|
E--------------------------------------------------------------------|
B-0---------------0----------------0---------------0-----------------|

End of Interlude
G--------------------------------------------------------------------|
D--------------------------------------------------------------------|
A--------------------------------------------------------------------|
E--------------------------------------------------------------------|
B-0~~~~~~~~/12-------------------------------------------------------|

Verse 3
Part 1 - 2X
G--------------------------------------------------------------------|
D--------------------------------------------------------------------|
A--------------------------------------------------------------------|
E------------------------------------------------------8p7-8p7-------|
B-0-0-0---0-00---0-0-0---0-00---0-0-0---0-00--0-0-0------------------|

Part 2 � 2X
G--------------------------------------------------------------------|
D--------------------------------------------------------------------|
A--------------------------------------------------------------------|
E--------------------------------------------------------------------|
B--0-0-0-0-0-0-0-0-0-0-0-0-0-0-0-0-0-0-0-0-0-0-0-0-0-0-0-0-0-0-0-0---|

Pre-Chorus 4X
G--------------------------------------------------------------------|
D--------------------------------------------------------------------|
A--------------------------------------------------------------------|
E-9-7--8~--/10--9-8-7~-----------------------------------------------|
B--------------------------------------------------------------------|

Chorus 2X
G----------------------------------------------------------------------------|
D----------------------------------------------------------------------------|
A----------------------------------------------------------------------------|
E----------------------------------------------------------------------------|
B-0--0--3-0--6-5�0--0--3-0--6-5-0--0--3-0--6-5---3--3-3---3-3~--------|

Outro - 2X
G--------------------------------------------------------------------|
D--------------------------------------------------------------------|
A--------------------------------------------------------------------|
E--------------------------------------------------------------------|
B-0-0-00-0-0000-00---------------------------------------------------|