Stone Sour - Monolith Chords & Tabs

 

Monolith Chords & Tabs

Stone Sour Chords & Tabs

Version: 4 Type: Tab

Monolith Tab

C#---------------1-------------------1-----------------17-------------17-|
G#-----2---------1----2--------------1------15------------15-------------|
E -2H3---3H2-----1-2h3-2h3---22------1-14h15--15h14h15-------15-14-------|
B ---------------1-----------00------1-----------------------------------|
F#---------------l-------------------1-----------------------------------|
B ------------4x-l-------------3x----1-----------------------------------|
Intro.
C#-17------------------|
G#---------------------|
E----------------------|
B----------------------|
F#----00001111---------|
B----------------------|
Verse.

C#----------------------|
G#----------------------|
E --------10101010------|
B ---------XXXXXXX------|
F#-7-7-7-7-8-8-8-8------|
B -7-7-7-7-8-8-8-8------|
Pre-chorus.

C#---------------------------------1------------------------------------|
G#---------------------------------1------------------------------------|
E ---------------------------999---1-7/---7--10--14-14/15/14------9-----|
B -7---3---2-----------------xxx---1-x----x--x---x--x---x--x------x-----|
F#-5---1---0---5-----3R----3/777---1-5/---5--8---12-12/13/12------7-----|
B -------------5-----3R----3/7-----l------------------------------------|2X
    2x           jim.                         a wah sounds cool here^
C#---------------------------------1-------------------------------|
G#---------------------------------1-------------------------------|
E -14-10--9----7-----5------10/9---1--------------------------999--|
B -x---x--x----x-----x------x--x---1-7----3--2----------------xxx--|
F#-12--8--7----5-----3------8/-7---1-5----1--0---5-----3R---3/777--|
B ---------------------------------1-------------5-----3R---3/7----| 2X
      2x         josh
  Chorus.

C#------------|
G#------------|
E ------------|
B ------------|
F#-00000000---|
B -00000000---|
  Interlude.         thats all the parts for the song
[ Tab from: http://www.guitartabs.cc/tabs/s/stone_sour/monolith_tab_ver_4.html ]
solo
C#-----------------------------------------|
G#-----------------------------------------|
E -14--15--14---9-12-9-10-9---14-15-14-----|
B -----------------------------------------|
F#-----------------------------------------|
B -----------------------------------------|

C#-------13-17-13------13-17-13------13-17-13-17-13-17---------|
G#-----15--------15--15--------15--15-----------------15--15---|
E -9/14------------14------------14---------------------14-----|
B -------------------------------------------------------------|
F#-------------------------------------------------------------|
B -------------------------------------------------------------|

C#------------------------------------------17-15-----------------|
G#-15b---15b--------------------------------------18-17-15-17-18--|
E ----17b----17b-17/15-15-15-14-15---14---------------------------|
B ----------------------------------------------------------------|
F#----------------------------------------------------------------|
B ----------------------------------------------------------------|

C#------------------------------------------------------------------|
G#------------------------------------------------------13----------|
E ----------------------------------------------12-14-15---15-14-12-|
B ----------------13-15-13-------------12-14-15---------------------|
F#-------12-13-15----------12-12-13-15------------------------------|
B -13-15------------------------------------------------------------|

C#----------------------------------13----------------------15-17-18--|
G#-------------------------13-15-16---16-15---------15-16-18----------|
E -------------12-12-14-15-----------------17-15-17-------------------|
B -15-15-14-15--------------------------------------------------------|
F#--------------------------------------------------------------------|
B --------------------------------------------------------------------|

C#-17-18-17-15---------15-18-17-15-20-18-20-22-22B^-|
G#-------------18-17-18-----------------------------|
E --------------------------------------------------|
B --------------------------------------------------|
F#--------------------------------------------------|
B --------------------------------------------------|

.....basic.....