Stone Sour - Monolith Chords & Tabs

 

Monolith Chords & Tabs

Stone Sour Chords & Tabs

Version: 3 Type: Tab 0 ratings
1 star 2 stars 3 stars 4 stars 5 stars
comments

Monolith Tab

   
Band- Stone Sour
Song- Monolith

6|B
5|F#
4|B
3|E
2|G#
1|C#


Jim: w/Phaser, Whammy (1-Oct Up on 2nd BAR)
0:07-:27 :28-:31 :32-:34
1|----------------------|-----------------------------|---------------|
2|----------------------|-----------------------------|---------------|
3|----------------------|-------------------14--------|-14-(feedback)-|
4|--------12------0-----|--------12-------------------|---------------|
5|--12h13----13--12-----|--12h13----13--12-----12-12--|---------------|
6|----------------------|-----------------------------|---------------|

Josh:
0:20-:31
1|----------------|
2|----------------|
3|----------7-----|
4|--7-7---7-7-----|
5|--5-5---5-5-----|
6|----------------|



Jim & Josh:
0:32-:43 0:43-:54
1|-------------------|-------------------|
2|-------------------|-------------------|
3|-------------------|-------------------|
4|-------------------|--7-7-7-7-8-8-8-8--|
5|-------------------|--7-7-7-7-8-8-8-8--|
6|--7-7-7-7-8-8-8-8--|--7-7-7-7-8-8-8-8--|
PM [---------------]



Jim:
0:55-1:00/1:07-:11 1:00-:06/1:12-:18
1|-----------------------|-----------------------------------|
2|-----------------------|-----------------------------------|
3|-----------------------|--7--10--12--14----14-14/15-13--9--|
4|----------------3---7--|--x--x---x---x-----x--x--x--x---x--|
5|--12---8--7--5--3---7--|--5--8---10--12----12-12/13\12--7--|
6|--12---8--7--5--3---7--|-----------------------------------|

Josh:
0:55-1:18
1|-----------------------------|
2|-------------------6-----10--|
3|-------------------5-----9---|
4|----------------3--3--7--7---|
5|--12---8--7--5--3-----7------|
6|--12---8--7--5--3-----7------|

(Bridge)
Jim & Josh:
1:18-:30
1|----------------|
2|----------------|
3|----------------|
4|----------------|
5|--0-0-0--0-0-0--|
6|--0-0-0--0-0-0--|
P.M. All


Jim & Josh:
1:30-:41 0:42-:52
1|-------------------|-------------------|
2|-------------------|-------------------|
3|-------------------|-------------------|
4|-------------------|--7-7-7-7-8-8-8-8--|
5|-------------------|--7-7-7-7-8-8-8-8--|
6|--7-7-7-7-8-8-8-8--|--7-7-7-7-8-8-8-8--|
PM [---------------]



Jim:
1:53-1:58/2:05-:09 1:59-2:04/2:10-:16
1|-----------------------|-----------------------------------|
2|-----------------------|-----------------------------------|
3|-----------------------|--7--10--12--14----14-14/15-13--9--|
4|----------------3---7--|--x--x---x---x-----x--x--x--x---x--|
5|--12---8--7--5--3---7--|--5--8---10--12----12-12/13\12--7--|
6|--12---8--7--5--3---7--|-----------------------------------|

Josh:
1:53-2:16
1|-----------------------------|
2|-------------------6-----10--|
3|-------------------5-----9---|
4|----------------3--3--7--7---|
5|--12---8--7--5--3-----7------|
6|--12---8--7--5--3-----7------|

(Bridge)
Jim & Josh:
2:16-2:27
1|----------------|
2|----------------|
3|----------------|
4|----------------|
5|--0-0-0--0-0-0--|
6|--0-0-0--0-0-0--|
P.M. All


Jim: (Rythem for Solo)
2:28-2:33/2:34-:39/2:40-:45
1|--------------------------------------------------------------|
2|--------------------------------------------------------------|
3|--------------------------------------------------------------|
4|--------------------------------------------------------------|
5|----------------------------------0-0-0--0-0-0--0-0-0--0-0-0--|
6|--7-7-7-7-8-8-8-8-5-5-5-5-7-7-7-7-0-0-0--0-0-0--0-0-0--0-0-0--|
PM [-------------------------------]
2:46-:51
1|---------------------------------------------------|
2|---------------------------------------------------|
3|---------------------------------------------------|
4|----------------------------------3-3-3-3-7-7-7-7--|
5|----------------------------------3-3-3-3-7-7-7-7--|
6|--7-7-7-7-8-8-8-8-5-5-5-5-7-7-7-7-3-3-3-3-7-7-7-7--|
PM [-------------------------------]


Josh: (Solo) w/ Digital Delay and Reverb
2:28-:33
1|----------------------------------------|
2|----------------------------------------|
3|--14--15--14---\9----9/12---9--10--9----|
4|----------------------------------------|
5|----------------------------------------|
6|----------------------------------------|
[ Tab from: http://www.guitartabs.cc/tabs/s/stone_sour/monolith_tab_ver_3.html ]
2:34-:36
1|------------------------|
2|------------------------|
3|--14--15--14---\9--/14--|
4|------------------------|
5|------------------------|
6|------------------------|


Note: (15^) = Bend 1 Step and Vibrato

2:37-:39
1|--17-------------|-17-------------|-17------17-------------------------|
2|------18--17--15-|-----18--17--15-|-----18------18--17--15---15^---15--|
3|-----------------|----------------|------------------------------------|
4|-----------------|----------------|------------------------------------|
5|-----------------|----------------|------------------------------------|
6|-----------------|----------------|------------------------------------|

2:40-:42
1|-----------------------------|--------------------------------|
2|--15--15--13--15--13--15--13-|--------------------------------|
3|-----------------------------|-15--14--15--15--15--15-15--14--|
4|-----------------------------|--------------------------------|
5|-----------------------------|--------------------------------|
6|-----------------------------|--------------------------------|

2:42-:45
1|--17--15---------------------------|
2|----------18--17--15--17--18----\--|
3|-----------------------------------|
4|-----------------------------------|
5|-----------------------------------|
6|-----------------------------------|

2:45-: This is my best guess on this one. I'll work on it some other time.
1|-----------------------------------------------|
2|-----------------------------------------------|
3|-----------------------------------------------|
4|--------------------------------12-14-15-14-12-|
5|-----------------12-14-15-14-12----------------|
6|--12-14-15-14-12-------------------------------|

1|-----------------------------------------------|
2|--------------------------------14-16-17-16-14-|
3|--12-14-15-14-12-14-16-17-16-14----------------|
4|-----------------------------------------------|
5|-----------------------------------------------|
6|-----------------------------------------------|

1|-----------------
2|--17-19-20-19-17-
3|-----------------
4|-----------------
5|-----------------
6|-----------------

Jim:
2:51-:56 2:57-:02
1|-----------------------|-----------------------------------|
2|-----------------------|-----------------------------------|
3|-----------------------|--7--10--12--14----14-14/15-13--9--|
4|----------------3---7--|--x--x---x---x-----x--x--x--x---x--|
5|--12---8--7--5--3---7--|--5--8---10--12----12-12/13\12--7--|
6|--12---8--7--5--3---7--|-----------------------------------|

Jim:
3:02-:08 3:09-:14
1|-----------------------|-----------------------------------|
2|-----------------------|-----------------------------------|
3|-----------------------|--7--10--12--14----14-14/15-13-19--|
4|----------------3---7--|--x--x---x---x-----x--x--x--x---x--|
5|--12---8--7--5--3---7--|--5--8---10--12----12-12/13\12-17--|
6|--12---8--7--5--3---7--|-----------------------------------|

Josh:
2:51-3:14
1|-----------------------------|
2|-------------------6-----10--|
3|-------------------5-----9---|
4|----------------3--3--7--7---|
5|--12---8--7--5--3-----7------|
6|--12---8--7--5--3-----7------|



Josh: 3:14-:25
1|---------------------------------|
2|---------------------------------|
3|---------------------------------|
4|--7-------7-------7-------7--5-5-|
5|--5-------5-------5-------5--3-3-|
6|--0-0-0-0-0-0-0-0-0-0-0-0-0------|

Jim: 3:14-:25
1|---------------------------------|
2|---------------------------------|
3|--7-------7-------7-------7------|
4|--x-------x-------x-------x--5-5-|
5|--5-------5-------5-------5--3-3-|
6|--0-0-0-0-0-0-0-0-0-0-0-0-0------|


(2nd Part of Outro)
Josh: 3:25-:37 3:37-:40
1|---------------------------------|-----------|------|END
2|---------------------------------|-----------|------|
3|---------------------------------|-----------|------|
4|--7-------7-------7-------7--5-5-|-12--\---x-|------|
5|--5-------5-------5-------5--3-3-|-12--\--x--|------|
6|--0-0-0-0-0-0-0-0-0-0-0-0-0------|-12--\-x---|------|

Jim: 3:25-:37 3:37-:40
1|------------------------------------|-----------|------|END
2|------------------------------------|-----------|------|
3|--7-------7-------7-------7--9-9-10-|-----------|------|
4|--x-------x-------x-------x--x-x-x--|-12--\-----|------|
5|--5-------5-------5-------5--7-7-8--|-12--\-----|------|
6|--0-0-0-0-0-0-0-0-0-0-0-0-0---------|-12--\-----|------|
Comments