Stone Sour - Inhale The Right One Chords & Tabs

 

Inhale The Right One Chords & Tabs

Stone Sour Chords & Tabs

Version: 1 Type: Tab 2 ratings
1 star 2 stars 3 stars 4 stars 5 stars
comments

Inhale The Right One Tab

Tuning Is In Drop D

(Intro)
E----------------------------
B----------------------------
G----------------------------
D---4--3---------------------
A-2------4--5(let note ring)-
D----------------------------

(part after the intro)

E----------------------------
B----------------------------
G-------11--10---6--7--------
D--9----11--10---6--7--------
A--9----9---8----4--5--------
D--9-------------------------


E------------------------------------------------------------------------------
B------------------------------------------------------------------------------
G------------------------------------------------------------------------------
D--9-9-9---9-9-9----5-4-----------------------------------------------2--------
A--9-9-9---9-9-9----5-4--(REPEAT ALL OF THIS PART AND THEN DO THIS)---2(12X)---
D--9-9-9---9-9-9----5-4-----------------------------------------------2--------

(INTRO AGAIN)

(the part above)

(intro again)
[ Tab from: http://www.guitartabs.cc/tabs/s/stone_sour/inhale_the_right_one_tab.html ]
E-------------------------------------------------
B-------------------------------------------------
G-------------------------------------------------
D--5-5-5-5---7-7-7-7--2---------------------------
A--5-5-5-5---7-7-7-7--2---------------------------
D--5-5-5-5---7-7-7-7--2---------------------------

---------------------------------------------------------------------------
---------------------------------------------------------------------------
---------------------------------------------------------------------------
-5-5--7-7--2------5-5-5-5---7-7-7-7--2-------------------------------------
-5-5--7-7--2------5-5-5-5---7-7-7-7--2-------------------------------------
-5-5--7-7--2------5-5-5-5---7-7-7-7--2-------------------------------------


------------------------------------------------------------------
------------------------------------------------------------------
------------------------------------------------------------------
--5-5--7-7--2-------2---------------------------------------------
--5-5--7-7--2-------2---(12x palm muted)--------------------------
--5-5--7-7--2-------2---------------------------------------------

(intro)

E------------------------------------------------
B------------------------------------------------
G------------------------------------------------
D-9-9-9---9-9-9----5-4------2--------------------
A-9-9-9---9-9-9----5-4------2---(let ring)-------
D-9-9-9---9-9-9----5-4------2--------------------

   

    TABBER
-Mike Kemmett-
Comments