Stone Sour - Inhale Chords & Tabs

 

Inhale Chords & Tabs

Stone Sour Chords & Tabs

Version: 5 Type: Tab 1 rating
1 star 2 stars 3 stars 4 stars 5 stars
comments

Inhale Tab

----------------
----------------
----------------
------3-2-0-1---
---2------------
----------------

[ Tab from: http://www.guitartabs.cc/tabs/s/stone_sour/inhale_tab_ver_5.html ]
------------
------------
------------
---2-3-2-0-1
---2-3-2-0-1
---2-3-2-0-1

thats all ive got ill get back with the rest soon
Comments