Stone Sour - Inhale Chords & Tabs

 

Inhale Chords & Tabs

Stone Sour Chords & Tabs

Version: 4 Type: Tab 0 ratings
1 star 2 stars 3 stars 4 stars 5 stars
comments

Inhale Tab

   
I'm not sure the tuning on the album but I believe it is C
but I play it in D. It sounds good.

Tuning: D (D,A,D,G,B,e)

Intro:
------------------------------------------------------
------------------------------------------------------
------------------------------------------------------
----4s3---0---------4s3---0---------------------------
--2-----4---------2-----4-----------------------------
------------------------------------------------------

Heavy Riff:          
------------------------------------------------------
------------------------------------------------------
------------------------------------------------------
-9-11-10-11-7-----------------------------------------
-9-9--8--11-5------Repeat 3x--------------------------
-9-------11-------------------------------------------
[ Tab from: http://www.guitartabs.cc/tabs/s/stone_sour/inhale_tab_ver_4.html ]
Verse:
------------------------------------------------------
------------------------------------------------------
------------------------------------------------------
-9-9-9-------------------9-9-9-----7-6-----Repeat-----
-9-9-9-------------------9-9-9-----5-4----------------
-9-9-9-------------------9-9-9------------------------   

Chorus:
------------------------------------------------------
------------------------------------------------------
------------------------------------------------------ Guitar 1
---4s3---0------4s3---0-----4s3---0-----4s3---0-------
-2-----4------2-----4-----2-----4-----2-----4---------
------------------------------------------------------

------------------------------------------------------
------------------------------------------------------
------------------------------------------------------ Guitar 2
-9------------7-----------2-----------5-----7---------
-9------------7-----------2-----------5-----7---------
-9------------7-----------2-----------5-----7---------          


Bridge:
------------------------------------------------------
------------------------------------------------------
------------------------------------------------------
-5555--7777--2------------5555--7777--2---------------repeat twice
-5555--7777--2------------5555--7777--2---------------
-5555--7777--2------------5555--7777--2---------------




Any questions or problems, email me at chaset10@msn.com
Comments