Stone Sour - Inhale Chords & Tabs

 

Inhale Chords & Tabs

Stone Sour Chords & Tabs

Version: 2 Type: Tab 0 ratings
1 star 2 stars 3 stars 4 stars 5 stars
comments

Inhale Tab

   
Stone Sour-Inhale
Album-Stone Sour(COREY TAYLORS NEW GROUP!)
Tuning-B F# B E Ab C#
Tabbed By-Roman D.-KEFLUVA1290

Intro/Chorus
C# |-----------
Ab |-----------
 E |-----------
 B |-----------
F# |-0-7-6---3
B  |--------7--


Riff 2

C#|-----------
Ab|-----------
E |-----------
B |0-7-6-2-3--
F#|0-7-6-2-3--
B |0-7-6-2-3--
[ Tab from: http://www.guitartabs.cc/tabs/s/stone_sour/inhale_tab_ver_2.html ]
Verse
C#|------------------------------------------------
Ab|------------------------------------------------
E |7--7-7-7-3-3-3----7----7-7-7-3-3-3-5-5-7--------
B |7--7-7---------7-7-7----7-7-7--------------7-*5*         ONLY
F#|5--5-5--------------5----5-5- 5-------------5*5* * *=Second time
B |---------------------------------------------*5* P.M.

Ending Riff
C# |---------------------------------
Ab |---------------------------------
E  |---------------------------------
B  |9-9-9-9--11-11-11-11-5-----------
F# |9-9-9-9--11-11-11-11-5-----------
B  |9-9-9-9--11-11-11-11-5-----------



Song Order
INTRO/CHORUS x6
RIFF 2	     x4
VERSE        x2
INTRO/CHORUS x8
Ending RIFF  x6
INTRO/CHORUS x16
RIFF 2       x4



That's it! THE EASIEST SONG IN THA WORLLLLDDDD!!!! If U cant play it,well,U SUCK!


Comments