Stone Sour - Inhale Chords & Tabs

 

Inhale Chords & Tabs

Stone Sour Chords & Tabs

Version: 15 Type: Tab 0 ratings
1 star 2 stars 3 stars 4 stars 5 stars
comments

Inhale Tab

   
This is a very good song and knowing whos the guitarist in the band i would think this
song would be harder but it is so easy i memorized it in 5 minitues and I've only been
playing since the start of August 2004.

Here it is enjoy


|---------------------------------------------------------------------------|
|                                STONE SOUR                                 |
|                                  INHALE                                   |
|---------------------------------------------------------------------------|

TUNNING(LOW to high):B,F#,B,E,G#,C#
P.M. = Palm Mute
~ = Hold the Note

INTRO                                  This is after Corey screams
|-----------------------------|        |-----------------------------|
|-----------------------------|        |-----------------------------|
|-----------------------------|DO THIS |-----------------------------|DO THIS
|-0-7-6---------0-7-6---------|3 TIMES |-0-7-6-2~--3~--0-7-6-2~--3~--| TWICE
|-------7~--8~--------7~--8~--|        |-0-7-6-2~--3~--0-7-6-2~--3~--|
|-----------------------------|        |-0-7-6-2~--3~--0-7-6-2~--3~--|

VERSE 
|-----------------------------------------------------------------------|
|-----------------------------------------------------------------------|
|-7~--7-7~--10-10-10-9~--7~--7-7~--10-10-10-12~--7~--7-7~--10-10-10-7~--|
|-7~--7-7~--10-10-10-9~--7~--7-7~--10-10-10-12~--5~--7-7~--10-10-10-7~--|
|-5~--5-5~--8--8--8--7~--5~--5-5~--8--8--8--10~--5~--5-5~--8--8--8--9~--|
|-----------------------------------------------------------------------|
[ Tab from: http://www.guitartabs.cc/tabs/s/stone_sour/inhale_tab_ver_15.html ]
PRE-CHORUS
(These are 16th notes)
P.M................................................................
|-----------------------------------------------------------------|
|-----------------------------------------------------------------|
|-----------------------------------------------------------------|
|-5-5-5-5-5-5-5-5-5-5-5-5-5-5-5-5-5-5-5-5-5-5-5-5-5-5-5-5-5-5-5-5-|
|-5-5-5-5-5-5-5-5-5-5-5-5-5-5-5-5-5-5-5-5-5-5-5-5-5-5-5-5-5-5-5-5-|
|-5-5-5-5-5-5-5-5-5-5-5-5-5-5-5-5-5-5-5-5-5-5-5-5-5-5-5-5-5-5-5-5-|

CHORUS
|---------------------------------------------------------|
|---------------------------------------------------------|
|---------------------------------------------------------|DO THIS
|-0-7-6---------0-7-6---------0-7-6---------0-7-6---------| TWICE
|-------7~--8~--------7~--8~--------7~--8~--------7~--8~--|
|---------------------------------------------------------|

PRE-BRIDGE  BRIDGE (DO THIS TWICE)
|-----|    |----------------------------------------------------------------|
|-----|    |----------------------------------------------------------------|
|-7~--|    |----------------------------------------------------------------|
|-7~--|    |-8-8-8-8--10-10-10-10--5~--8-8-8-8--10-10-10-10-10-10-10-10--5~-|
|-5~--|    |-8-8-8-8--10-10-10-10--5~--8-8-8-8--10-10-10-10-10-10-10-10--5~-|
|-----|    |-8-8-8-8--10-10-10-10--5~--8-8-8-8--10-10-10-10-10-10-10-10--5~-|

PRE-CHORUS 2
P.M................
|-----------------|
|-----------------|
|-----------------|
|-5-5-5-5-5-5-5-5-|
|-5-5-5-5-5-5-5-5-|
|-5-5-5-5-5-5-5-5-|

CHORUS 2
|-----------------------------|        |-----------------------------|
|-----------------------------|        |-----------------------------|
|-----------------------------|DO THIS |-----------------------------|DO THIS
|-0-7-6---------0-7-6---------|8 TIMES |-0-7-6-2~--3~--0-7-6-2~--3~--| TWICE
|-------7~--8~--------7~--8~--|        |-0-7-6-2~--3~--0-7-6-2~--3~--|
|-----------------------------|        |-0-7-6-2~--3~--0-7-6-2~--3~--|

OUTRO
|---------|
|---------|
|-7~--7~--|
|-7~--7~--|
|-5~--5~--|
|---------|

|-------------------|
| THIS IS THE ORDER |
|-------------------|
INTRO
VERSE
PRE-CHORUS
CHORUS
VERSE
PRE-CHORUS
CHORUS
PRE-BRIDGE
BRIDGE
PRE-CHORUS 2
CHORUS 2
OUTRO
Comments