Stone Sour - Inhale Chords & Tabs

 

Inhale Chords & Tabs

Stone Sour Chords & Tabs

Version: 14 Type: Tab 0 ratings
1 star 2 stars 3 stars 4 stars 5 stars
comments

Inhale Tab

Stone Sour-Inhale
Tabbed by:GergleRock86
Email:looney2006@yahoo.com
Tuning:CGBFAD

Intro/Chorus
|----------------|
|----------------|
|----------------|
|-0-7-6----------|
|-------7---8----|
|----------------|

Intro/Ending (heavy part)
|---------------|
|---------------|
|---------------|
|-0-7-6-2---3---|
|-0-7-6-2---3---|
|-0-7-6-2---3---|

Verse
|--------------------|
|--------------------|
|--------------------|
|-0------0-----------|
|-0------0-6-6-5-5-5-|
|-0------0-----------|
[ Tab from: http://www.guitartabs.cc/tabs/s/stone_sour/inhale_tab_ver_14.html ]
Pre-Chorus
|-------------------|
|-------------------|
|-------------------|
|-5-5-5-5-5-5-5-----|
|-5-5-5-5-5-5-5-4x--|
|-5-5-5-5-5-5-5-----|

Chorus
Verse
Pre-Chorus
Chorus

Bridge
|---------------------|
|---------------------|
|---------------------|
|-6-6-6-6--8-8-8-8-8--|
|-6-6-6-6--8-8-8-8-8--|
|-6-6-6-6--8-8-8-8-8--|

|---------------------------|
|---------------------------|
|---------------------------|
|-6----6-6-6-8-8-8-8-8--8---|
|-6----6-6-6-8-8-8-8-8--8---|
|-6----6-6-6-8-8-8-8-8--8---|

Pre-Chorus
Chorus
Intro Heavy Part

End On
|----|
|----|
|----|
|-0--|
|-0--|
|-0--|
Comments