Stone Sour - Inhale Chords & Tabs

 

Inhale Chords & Tabs

Stone Sour Chords & Tabs

Version: 13 Type: Tab 0 ratings
1 star 2 stars 3 stars 4 stars 5 stars
comments

Inhale Tab

   
tunning:down 1 1/2 steps
low to high[B F# B E G# C#]

Intro
Guitar 1
C#|----------------------------------------------------------------------------|
G#|----------------------------------------------------------------------------|
E |----2-1---------------------------------------------------------------------|
b |--0-----2-3-----------------------------------------------------------------|
F#|----------------------------------------------------------------------------|
B |----------------------------------------------------------------------------|6x

Guitar 2
|----------------------------------------------------------------------------|
|----------------------------------------------------------------------------|
|----------------------------------------------------------------------------|
|--7~----77--5~----55--------33333-55555-------------------------------------|
|--5~----55--3~----33--5~----11111-33333-------------------------------------|
|----------------------5~----------------------------------------------------|1x

Heavy Part
Guitar 1
|----------------------------------------------------------------------------|
|----------------------------------------------------------------------------|
|----------------------------------------------------------------------------|
|--7--14--13--9--10----------------------------------------------------------|
|--5--12--11--7---8----------------------------------------------------------|
|----------------------------------------------------------------------------|4x

Guitar 2
|----------------------------------------------------------------------------|
|----------------------------------------------------------------------------|
|----------------------------------------------------------------------------|
|----------------------------------------------------------------------------|
|--0--7--6--2--3-------------------------------------------------------------|
|--0--7--6--2--3-------------------------------------------------------------|4x

Verse
Guitar 1
|----------------------------------------------------------------------------|
|----------------------------------------------------------------------------|
|-----------77--------10-10-10--9-9-9-9-9------------------------------------|
|--7~-------77-7~------x--x--x--x-x-x-x-x------------------------------------|
|--5~-------55-5~------8--8--8--7-7-7-7-7------------------------------------|
|--0~----------0~------------------------------------------------------------|

|----------------------------------------------------------------------------|
|----------------------------------------------------------------------------|
|-----------77---------10-10-10--12-12-12-12-12------------------------------|
|--7~-------77-7~-------x--x--x---x--x--x--x--x------------------------------|
|--5~-------55-5~-------8--8--8--10-10-10-10-10------------------------------|
|--0-~---------0~------------------------------------------------------------|

|----------------------------------------------------------------------------|
|----------------------------------------------------------------------------|
|-----------77--------10-10-10--9-9-9-9-9------------------------------------|
|--7~-------77-7~------x--x--x--x-x-x-x-x------------------------------------|
|--5~-------55-5~------8--8--8--7-7-7-7-7------------------------------------|
|--0~----------0~------------------------------------------------------------|

Guitar 2
|----------------------------------------------------------------------------|
|----------------------------------------------------------------------------|
|-----------77---------------------------------------------------------------|
|--7~-------77-7~-----10-10-10--9-9-9-9-9------------------------------------|
|--5~-------55-5~------8--8--8--7-7-7-7-7------------------------------------|
|--0~----------0~------------------------------------------------------------|3x
[ Tab from: http://www.guitartabs.cc/tabs/s/stone_sour/inhale_tab_ver_13.html ]
Pre Chorus
Guitar 1
|----------------------------------------------------------------------------|
|----------------------------------------------------------------------------|
|----------------------------------------------------------------------------|
|--12-12-12-12-12-12-12-12-12-12-12-12-12-12-12-12-12-12-12-12-12-12-12-12---|
|--10-10-10-10-10-10-10-10-10-10-10-10-10-10-10-10-10-10-10-10-10-10-10-10---|
|----------------------------------------------------------------------------|repaet
pm...........................................................................

and when he says "all i want to know is" then play this till chorus
|----------------------------------------------------------------------------|
|----------------------------------------------------------------------------|
|----------------------------------------------------------------------------|
|--7-7-7-7-7-7-7-7-7-7-7-7-7-7-7-7-7-7-7-7-7-7-7-7-7-7-7-7-7-7-7-7-7-7-7-7-7-|
|--5-5-5-5-5-5-5-5-5-5-5-5-5-5-5-5-5-5-5-5-5-5-5-5-5-5-5-5-5-5-5-5-5-5-5-5-5-|
|----------------------------------------------------------------------------|
pm............................................................................

Guitar 2
|----------------------------------------------------------------------------|
|----------------------------------------------------------------------------|
|----------------------------------------------------------------------------|
|----------------------------------------------------------------------------|
|--5-5-5-5-5-5-5-5-5-5-5-5-5-5-5-5-5-5-5-5-5-5-5-5-5-5-5-5-5-5-5-5-5-5-5-5-5-|
|--5-5-5-5-5-5-5-5-5-5-5-5-5-5-5-5-5-5-5-5-5-5-5-5-5-5-5-5-5-5-5-5-5-5-5-5-5-|
pm............................................................................
repeat same chord till chorus

Chorus
Guitar 1
|----------------------------------------------------------------------------|
|----------------------------------------------------------------------------|
|----2-1---------------------------------------------------------------------|
|--0-----2-3-----------------------------------------------------------------|
|----------------------------------------------------------------------------|
|----------------------------------------------------------------------------|8x

Guitar 2
|----------------------------------------------------------------------------|
|----------------------------------------------------------------------------|
|----------------------------------------------------------------------------|
|--7~----77--5~----55--------33333-55555-------------------------------------|
|--5~----55--3~----33--5~----11111-33333-------------------------------------|
|----------------------5~----------------------------------------------------|2x

both guitars play this right after the second chorus going into the bridge.
|-----|
|-----|
|-----|
|--7~-|
|--5~-|
|--0~-|

[Verse]

[Pre Chorus]

[Chorus]

Bridge
Guitars 1 and 2
|----------------------------------------------------------------------------|
|----------------------------------------------------------------------------|
|----------------------------------------------------------------------------|
|--3333-5555-------3333355555------------------------------------------------|
|--1111-3333--5~---1111133333--5~--------------------------------------------|
|-------------5~---------------5~--------------------------------------------|2x

Guitar 1
|----------------------------------------------------------------------------|
|----------------------------------------------------------------------------|
|----------------------------------------------------------------------------|
|--12-12-12-12-12-12-12-12-12------------------------------------------------|
|--10-10-10-10-10-10-10-10-10------------------------------------------------|
|----------------------------------------------------------------------------|
pm........................

Guitar 2
|----------------------------------------------------------------------------|
|----------------------------------------------------------------------------|
|----------------------------------------------------------------------------|
|----------------------------------------------------------------------------|
|--5-5-5-5-5-5-5-5-5---------------------------------------------------------|
|--5-5-5-5-5-5-5-5-5---------------------------------------------------------|
pm................

[Chorus]2x

[Heavy Part in intro]

both guitars end song with this chord
|---------|
|---------|
|---------|
|--7~-----|
|--5~-----|
|--0~-----|

477 productions
Comments