Stone Sour - Inhale Chords & Tabs

 

Inhale Chords & Tabs

Stone Sour Chords & Tabs

Version: 1 Type: Bass Tab 0 ratings
1 star 2 stars 3 stars 4 stars 5 stars
comments

Inhale Bass Tab

Band: Stone Sour
Song: Inhale
I think this is right 

(Intro)
G--------------------------
D--------------------------		
A--------------------------
E--------------------------
B---12---10---5---8---10	(1x)

(Heavy part)

G----------------------
D----------------------		
A----------------------
E----------------------
B---0-7-6-2-3--------	
[ Tab from: http://www.guitartabs.cc/tabs/s/stone_sour/inhale_btab.html ]
(Verse)
G----------------------
D----------------------		
A----------------------
E----------------------
B---12-----------12-12-12-----8-8-8-7   (3x)      B----5   (32x)

Chorus 
G--------------------------
D--------------------------		
A--------------------------
E--------------------------
B---12---10---5---8---10  (2x)

Verse
Chorus

Bridge 
G------------------------------
D------------------------------		
A------------------------------
E------------------------------
B---8-8-8-8-10-10-10-10---5      (4x)

Chorus
Chorus 
Heavy part
Comments