Stone Sour - Get Inside Chords & Tabs

 

Get Inside Chords & Tabs

Stone Sour Chords & Tabs

Version: 2 Type: Tab 2 ratings
1 star 2 stars 3 stars 4 stars 5 stars
comments

Get Inside Tab

 Title: Get Inside
 Artist: Stone Sour
 Album: Stone Sour

Intro:

C#---------------------------------------------------------------------------------------
 A---------------------------------------------------------------------------------------
 E---------------------------------------------------------------------------------------
 B---------------------------------------------------------------------------------------
F#----------------------------------------------------------------------------3-6----3--2
 B-3-2-1-0-0-0-3-2-1-0-0-0-3-2-1-0-3-2-1-0-0-0-3--6---3-2-1-0-0-0-3-2-1-0-0-0-3-6----3--2


Riff:

 ----------------------------------------------------------------------------------------
 ----------------------------------------------------------------------------------------
 ----------------------------------------------------------------------------------------
 ----------------------------------------------------------------------------------------
 --0---0--0--0---6---0--0--0--1-0-1-0--0-0-0-0-6-0-0-0-----------------------------------
 --0---0--0--0---6---0--0--0--1-0-1-0--0-0-0-0-6-0-0-0--3--6/2---------------------------


Verse:

 ----------------------------------------------------------------------------------------
 ----------------------------------------------------------------------------------------
 ----------------------------------------------------------------------------------------
 ----------------------------------------------------------------------------------------
 --0--0--0--0--0--0--0--0--0--0--1/4--0--0--0--0--0--0--0--0--0--0--6--5--6--5-----------
 --0--0--0--0--0--0--0--0--0--0--1/4--0--0--0--0--0--0--0--0--0--0--6--5-----------------


Pre-Chorus:
[ Tab from: http://www.guitartabs.cc/tabs/s/stone_sour/get_inside_tab_ver_2.html ]
 -------------------------------------------------------------------------------------------------------------------
 -------------------------------------------------------------------------------------------------------------------
 ------------------------------------------------------7---------------5-------6--5---------------------------------
 --8-------7-------8-------7-------8-------7-----5------------8---7---------7---------------------------------------
 --6-------5-------6-------5-------6-------5------------------------------------------------------6----5---------0--
 ----------------------------------------------------------------------------------------6----5---------------------


Chorus:

 -------------------------------------------------------------------------------------------------------------------
 -------------------------------------------------------------------------------------------------------------------
 -------------------------------------------------------------------------------------------------------------------
 -------------------------------------------------------------------------------------------------------------------
 --3--5---0------3--0--3--5---0--6--5--3--0----3--5---0--6--5--3----------------------------------------------------
 --3--5---0------3--0--3--5---0--6--5--3--0----3--5---0--6--5--3----------------------------------------------------


Riff 2:

 -------------------------------------------------------------------------------------------------------------------
 -------------------------------------------------------------------------------------------------------------------
 -------------------------------------------------------------------------------------------------------------------
 -------------------------------------------------------------------------------------------------------------------
 --5--6--5--0--1--2--3--0--5--6--5--0--1--2--3--0-------------------------------------------------------------------
 --5--6--5--0--1--2--3--0--5--6--5--0--1--2--3--0-------------------------------------------------------------------




 I'm not sure about the solo. As soon as I know it I will add it to this tab.


 


 
 


Comments