Stone Sour - Choose Chords & Tabs

 

Choose Chords & Tabs

Stone Sour Chords & Tabs

Version: 1 Type: Tab 0 ratings
1 star 2 stars 3 stars 4 stars 5 stars
comments

Choose Tab

   
Song: Choose
Artist: Stone Sour
Album: Stone Sour
Tabbed by: Christian / silent_warrior_@hotmail.com

PM - Palm mute
/ - Slide up
\ - Slide down
h - Hammer on
p - Pull off

Tuning - B F# B E G# C#


Intro
|------------------------------|
|------------------------------|
|------------------------------| x2
|------------------------------|
|------------------------------|
|-7-0-0-9--0-0-0-0-0-0-0-0-0-0-|
PM         - - - - - - - - - -


Verse - Play 3 times
|---------------------------------|     |-------|
|---------------------------------|     |-------|
|---------------------------------| x4  |-------| x1
|-----0-0-0-0-0-0-0-0-0-0---------|     |-------|
|-----0-0-0-0-0-0-0-0-0-0---------|     |-------|
|-4p6-0-0-0-0-0-0-0-0-0-0-5-4h5p4-|     |-5/8\5-|
PM    - - - - - - - - - -


Pre-chorus
|--------------|
|--------------|
|-7-7----------| x4
|-7-7--6-6-6-6-|
|-5-5--6-6-6-6-|
|------6-6-6-6-|


Chorus
|-------------------------|      |---------|
|-------------------------|      |---------|
|-------------------------| x2   |---------| x1
|-2-2-2-2-2/3-3-3-3-3-3-3-|      |-3/5-5/7-|
|-2-2-2-2-2/3-3-3-3-3-3-3-|      |-3/5-5/7-|
|-2-2-2-2-2/3-3-3-3-3-3-3-|      |-3/5-5/7-|
PM                - - - -


Verse - Play 3 times
|---------------------------------|      |-------|
|---------------------------------|      |-------|
|---------------------------------| x4   |-------| x1
|-----0-0-0-0-0-0-0-0-0-0---------|      |-------|
|-----0-0-0-0-0-0-0-0-0-0---------|      |-------|
|-4p6-0-0-0-0-0-0-0-0-0-0-5-4h5p4-|      |-5/8\5-|
PM    - - - - - - - - - -


Pre-chorus
|--------------|
|--------------|
|-7-7----------| x4
|-7-7--6-6-6-6-|
|-5-5--6-6-6-6-|
|------6-6-6-6-|

[ Tab from: http://www.guitartabs.cc/tabs/s/stone_sour/choose_tab.html ]
Chorus
|-------------------------|      |---------|
|-------------------------|      |---------|
|-------------------------| x2   |---------| x1
|-2-2-2-2-2/3-3-3-3-3-3-3-|      |-3/5-5/7-|
|-2-2-2-2-2/3-3-3-3-3-3-3-|      |-3/5-5/7-|
|-2-2-2-2-2/3-3-3-3-3-3-3-|      |-3/5-5/7-|
PM                - - - -


Bridge
|-------------------------|
|-------------------------|
|-------------------------| x4
|-2-3-2-0-2-0-2-0-2-0-2-0-|
|-2-3-2-0-2-0-2-0-2-0-2-0-|
|-2-3-2-0-2-0-2-0-2-0-2-0-|
PM- - - - - - - - - - - -


Verse - Play 3 times
|---------------------------------|     |-------|
|---------------------------------|     |-------|
|---------------------------------| x4  |-------| x1
|-----0-0-0-0-0-0-0-0-0-0---------|     |-------|
|-----0-0-0-0-0-0-0-0-0-0---------|     |-------|
|-4p6-0-0-0-0-0-0-0-0-0-0-5-4h5p4-|     |-5/8\5-|
PM    - - - - - - - - - -


Pre-chorus
|--------------|
|--------------|
|-7-7----------| x4
|-7-7--6-6-6-6-|
|-5-5--6-6-6-6-|
|------6-6-6-6-|


Chorus
|-------------------------|      |---------|
|-------------------------|      |---------|
|-------------------------| x2   |---------| x1
|-2-2-2-2-2/3-3-3-3-3-3-3-|      |-3/5-5/7-|
|-2-2-2-2-2/3-3-3-3-3-3-3-|      |-3/5-5/7-|
|-2-2-2-2-2/3-3-3-3-3-3-3-|      |-3/5-5/7-|
PM                - - - -


Bridge
|-------------------------|
|-------------------------|
|-------------------------| x4
|-2-3-2-0-2-0-2-0-2-0-2-0-|
|-2-3-2-0-2-0-2-0-2-0-2-0-|
|-2-3-2-0-2-0-2-0-2-0-2-0-|
PM- - - - - - - - - - - -


Verse - Play 2 times
|---------------------------------|     |-------|
|---------------------------------|     |-------|
|---------------------------------| x4  |-------| x1
|-----0-0-0-0-0-0-0-0-0-0---------|     |-------|
|-----0-0-0-0-0-0-0-0-0-0---------|     |-------|
|-4p6-0-0-0-0-0-0-0-0-0-0-5-4h5p4-|     |-5/8\5-|
PM    - - - - - - - - - -
Comments