Stone Sour - Bother Chords & Tabs

 

Bother Chords & Tabs

Stone Sour Chords & Tabs

Version: 4 Type: Tab 0 ratings
1 star 2 stars 3 stars 4 stars 5 stars
comments

Bother Tab

   
I liked the tab Tommi made but I wanted to make some changes to it that
I found make the song a little easier to play, and it sounds good this
way too.


Intro/Interlude:
[ Tab from: http://www.guitartabs.cc/tabs/s/stone_sour/bother_tab_ver_4.html ]
    Ebm    Db                   Ebm    Db
1:|--6-----4------------------|-----6--4------------------|
2:|--6h7---6---6h7p6----------|-----7--6---6h7p6----------|
3:|--6h8---6----------8p6-----|-----6--6----------8p6-----|
4:|--6h8---6------------------|--8-----6------------------|
5:|--6-----4------------------|--6-----4------------------|
6:|---------------------------|---------------------------|

    Ebm    Db                   Ebm    Db
1:|-----6--4------------------|-----6--4------------------|
2:|-----7--6---6h7p6----------|-----7--6------------------|
3:|-----6--6----------8p6-----|-----6--6------------------|
4:|--8-----6------------------|--8-----6------------------|
5:|--6-----4------------------|--6-----4------------------|
6:|---------------------------|---------------------------|

Look at other tabs for the solo and the rest of the song.
Comments