Stone Sour - Bother Chords & Tabs

 

Bother Chords & Tabs

Stone Sour Chords & Tabs

Version: 3 Type: Tab 0 ratings
1 star 2 stars 3 stars 4 stars 5 stars
comments

Bother Tab

Bother by Stone Sour
{half step down}

Intro/Interlude:
|-7-----5-------------------|----7--5-------------------|
|-7h8---7-------------------|----8--7-------------------|
|-7h9---7---9h12p11p9/-7----|-------7---9h12p11p9/-7----|
|-7h9---7-----------------9-|-------7-----------------9-|
|-7-----5-------------------|-7-----5-------------------|
|---------------------------|---------------------------|

|-----7--5--------------------|-----7-------------------|
|-----8--7--------------------|-----8-------------------|
|--------7---9h12p11p9/-7-----|--------7----------------|
|--------7-----------------9--|--------7----------------|
|--7-----5--------------------|--7-----5----------------|
|-----------------------------|-------------------------|

Verse:
|--7-----5------------------|--7-----5------------------|
|--8-----7------------------|--7h8---7------------------|
|--9-----7------------------|--7h9---7------------------|
|--9-----7------------------|--7h9---7------------------|
|--7-----5------------------|--7-----5------------------|
|---------------------------|---------------------------|
 
|---------------------------|--7-----5------------------|
|---------------3-----------|--8-----7------------------|
|------4--------4---4-------|--9-----7---9h12p11p9/-7---|
|------5--------5---5-------|--9-----7----------------9-|
|--5---5----5---5---5---5---|--7-----5------------------|
|--3---3----3---3---4---3---|---------------------------|

|--7-----5------------------|--7-----5------------------|
|--8-----7------------------|--7h8---7------------------|
|--9-----7------------------|--7h9---7------------------|
|--9-----7------------------|--7h9---7------------------|
|--7-----5------------------|--7-----5------------------|
|---------------------------|---------------------------|

|---------------------------|--3--3--3--5---5----5---5--|
|---------------3-----------|--3--3--3--7---7----7---7--|
|------4--------4---4-------|--4--4--4--7---7----7---7--|
|------5--------5---5-------|--5--5-----7---7----7---7--|
|--5---5----5---5---5---5---|--5--------5---5----5---5--|
|--3---3----3---3---4---3---|--3------------------------|

Chorus:
|--7---------------------7--|--5------------------------|
|--8---------------------8--|--7------------------------|
|--9------------------------|--7------------------------|
|--9------------------------|--7------------------------|
|--7------------------7-----|--5------------------------|
|---------------------------|---------------------------|
[ Tab from: http://www.guitartabs.cc/tabs/s/stone_sour/bother_tab_ver_3.html ]
|-7-------------------------|--2--------------------7---|
|-8-------------------------|--4---4--4---5--5--4---7h8-|
|-9-------------------------|--4---4--4---4--4--4---7h9-|
|-9-------------------------|--4---4--4---4--4--4---7h9-|
|-7-------------------------|--2---2--2---2--2--2---7---|
|---------------------------|---------------------------|




|--7----7----------------7--|--5------------------------|
|--8----8---------8---8-----|--7------------------------|
|--9----9---------9---------|--7------------------------|
|--9----9---------9---------|--7------------------------|
|--7----7-------------------|--5------------------------|
|---------------------------|---------------------------|

|---------------------------|---------------------------|
|-----------------3---------|-----------------5---------|
|-----4------4----4---------|-----6------6----6---------|
|--5--5---5--5----5---5-----|--7--7---7--7----7---7-----|
|--5--5---5--5----5---5--5--|--7--7---7--7----7---7--7--|
|--3--3---3--3----3---3--3--|--5--5---5--5----5---5--5--|

Bridge:
|--7--7---7----7----7----7--|---------------------------|
|--8--8---8----8----8----8--|--7--7---7----7----7----7--|
|--9--9---9----9----9----9--|--8--8---8----8----8----8--|
|--9--9---9----9----9----9--|--9--9---9----9----9----9--|
|--7--7---7----7----7----7--|--9--9---9----9----9----9--|
|---------------------------|--7--7---7----7----7----7--|

|---------------------------|--5--5---5----5----5----5--|
|--3--3---3----3----3----3--|--7--7---7----7----7----7--|
|--4--4---4----4----4----4--|--7--7---7----7----7----7--|
|--5--5---5----5----5----5--|--7--7---7----7----7----7--|
|--5--5---5----5----5----5--|--5--5---5----5----5----5--|
|--3--3---3----3----3----3--|---------------------------|

Solo: 
|---------------------------|---------------------7-----|---------------------------|
|--10p8-7h8-----5h7-8/108--|--7------------------8-----|---------------------------|
|---------------------------|------9---7---7h9----9-----|--7h9p7--------------------|
|---------------------------|---------------------9-----|----------7---7---9--------|
|---------------------------|---------------------7-----|---------------------------|
|---------------------------|---------------------------|---------------------------|

|---------------------------|---------------------------|---------------------------|
|---------------------------|---------------------------|---------------------------|
|-----------------7h9p7--9--|--14b--------12-----14p12--|--11h12p11--9--11--7--7h9--|
|-------5h7--7/9---------9--|---------------------------|---------------------------|
|--5h7-------------------7--|---------------------------|---------------------------|
|---------------------------|---------------------------|---------------------------|

Guitar 2 (or bass?):
|---------------------------|
|---------------------------|
|---------------------------|  Repeat couple of times
|---------------------------|  over the 1st guitar... 
|-----5h7--7/9--7------5----|
|--7------------------------|

End: (strum this chord)
|-----7--|
|----8---|
|---9----|  
|--9-----|  
|-7------|
|--------|
Comments