Stone Sour - Bother Chords & Tabs

 

Bother Chords & Tabs

Stone Sour Chords & Tabs

Version: 18 Type: Tab 0 ratings
1 star 2 stars 3 stars 4 stars 5 stars
comments

Bother Tab

   
STONE SOUR - BOTHER
I've tried tons of tabs for this song and a lot of
them seem pretty much correct exept for the solo.

Here is waht I came up with:
Tuning:Half Step Down: Low to High (Eb Ab Db Gb Bb Eb)

SOLO

---------------------------------------------------------------------
-----------10h8h7h8---------7h8h7------------------------------------
----------------------7h9--------------9---------7------------7------
-----9--------------------------------------7h9--------7h9---------9-
-----7---------------------------------------------------------------
---------------------------------------------------------------------
[ Tab from: http://www.guitartabs.cc/tabs/s/stone_sour/bother_tab_ver_18.html ]
------------------------------------------                
---------------------------------10b--10r-                     
-------------------------7h9--------------                     
------------5h7--7s9----------------------                      
-----5h7----------------------------------                        
------------------------------------------                  

------------------------------------------------
-8--8h10h8h10h8-------10h8----------------------
-----------------9-----------9-------7h9~~~~----
------------------------------------------------
------------------------------------------------
------------------------------------------------

It's not totally right but it's what I play
So please comment!!!!!
Comments