Stone Sour - Bother Chords & Tabs

 

Bother Chords & Tabs

Stone Sour Chords & Tabs

Version: 12 Type: Tab 0 ratings
1 star 2 stars 3 stars 4 stars 5 stars
comments

Bother Tab

ok this i think is pretty right if not ..oh well any flames or compliments send
to blkwolf2chains@aol.com >clean tone,standard..i might have missed a hammer on
or pull off or two bcuz bothers full of them...idk use your judgement here
E----------------------------------------------------------------
B------10p8p7--8~~~~~~(8)-----7h8p7--(7)-------------------------
G--------------------------7--------------9~~~~(9)p7-------------
D-9--------------------------------------------------------------
A-7--------------------------------------------------------------
E---------------------------------------------------------------- 
[ Tab from: http://www.guitartabs.cc/tabs/s/stone_sour/bother_tab_ver_12.html ]
E----------------------------------------------------------------
B----------------------------------------------------------------
G--9~~~~~(9)-------7------------------------------------7 h9~~(9)
D-------------7h9-----7/9~~~~(9)~~~~(9)\-------5h7--7/9----------
A-------------------------------------------5--------------------
E----------------------------------------------------------------
  1/2
E-10-------------------------------------------------------------
B-10r--(10)----8----10--8\ 3\ 0---0---10p 8----------------------
G---------------------------------------------9---9~~~~~(9)~~~---
D----------------------------------------------------------------
A----------------------------------------------------------------
E----------------------------------------------------------------

E----------------------------------------------------------------
B----------------------------------8-----------------------------
G--7-9----7-9~~~~~~~9~~~~9~~~~~~~--7-----------------------------
D----------------------------------9-----------------------------
A----------------------------------7-----------------------------
E----------------------------------0-----------------------------
Comments