Stone Sour - Bother Chords & Tabs

 

Bother Chords & Tabs

Stone Sour Chords & Tabs

Version: 1 Type: Tab 0 ratings
1 star 2 stars 3 stars 4 stars 5 stars
comments

Bother Tab

Showing tab for Stone Sour - Bother

[ Tab from: http://www.guitartabs.cc/tabs/s/stone_sour/bother_tab.html ]
Tuning is standard tuned down one half step.
 
 ^ - hammer-on pull-off
 ~ - Vibrato
 /\ - Slide up & down
 % - Rest
 
 Intro                      (2x)
 [-7---7-----------][---7--7-----------][---7--7--]
 [-7^8-7--7^8^7----][---8--7--7^8^7----][---8--7--]
 [-7---7-------9-7-][---7--7-------9-7-][---7--7--]
 [-7^9-7-----------][-9----7-----------][-9-9--7--]
 [-7---7-----------][-7----7-----------][-7----7--]
 [-----------------][------------------][---------]
 
 Rest
 
 Verses #1&3
                       
 [-7------------------][-------------]
 [-7^8--7--7^8-7-(7)\-][-------------]
 [-7----7--7---7-(7)\-][-----7-7-7-x-]
 [-7^9--7--7^9-7-(7)\-][-7-7-7-7-7-x-]
 [-7----7--7---7-(7)\-][-5-5-5-5-5-x-]
 [--------------------][-------------]
 
 [-------------------][------------][-----------]
 [-8--7-7^8^7--------][---7--7^8-7-][---------8-]
 [-7--7------9-7---7-][-9-7--7---7-][-7-7-7-7-7-]
 [-9--7----------9-7-][-9-7--7^9-7-][-7-7-7-7-5-]
 [-7--7----------7---][-7-7--7---7-][-5-5-5-5-5-]
 [-------------------][-0----------][-----------]
 
 [-----------------]
 [-8-8-x-x---------]
 [-7-7-x-x-7-7-7-x-]
 [-5-5-x-x-7-7-7-x-]
 [-5-5-x-x-9-9-9-x-]
 [-----------------]
 
 The Chorus should be easy to figure out knowing this. So here's the solo.
 
 Solo guitar 1
 [------------------------------------------------]
 [-10^8^7-8~~~~~---7^8^7-(7)----------------------]
 [--------------7------------9~~~~(9)~~~~^7-9~~~~-]
 [------------------------------------------------]
 [------------------------------------------------]
 [------------------------------------------------]
 continued...
 [-----------------------%----------------10br---]
 [-----7-----------------%----------------10br-8-] [-7^9---7/9~~~~(9)~~~~~-%----------7^9~~~-------]
 [-----------------------%---5^7-7/9-------------]
 [-----------------------%-5---------------------]
 [-----------------------%-----------------------]
 Continued...
 [------------------------------------------]
 [-10^8\3^0-10^8----------------------------]
 [---------------9-9~~~~--7^9-7^9~~~~~~~~~--]
 [------------------------------------------]
 [------------------------------------------]
 [------------------------------------------]
 
 There's alot more to the song but I'm a lazy ass.
 
 ENJOY!!!
 

Comments