Stone Sour - Blue Study Chords & Tabs

 

Blue Study Chords & Tabs

Stone Sour Chords & Tabs

Version: 2 Type: Tab 0 ratings
1 star 2 stars 3 stars 4 stars 5 stars
comments

Blue Study Tab

   
Band- Stone Sour
Song- Blue Study

Tuning: B F# B E G C

Opening/Chorus/Main Riff
|--------------------------------------------------------------------|
|-------------------------------------------------------3-3-3---3-3--|
|--*-*---2h4---4--4--4-----4-4-4----4-4-4h5------5-5-5--x-x-x---x-x--|
|--2-2---2-----2--2--2-----2-2-2----2-2-2--------2-2-2--2-2-2---2-2--|
|--------------------------------------------------------------------|
|--------------------------------------------------------------------|
pm......


Verse:
Use partial pinch harmonics and pinch harmonics depending on how it is played
|-----------------------------------------------------------------------|
|-----------------------------------------------------------------------|
|---------------------------------------------------9---10--7--9--------|
|--7--9--10---9------------------7--9--10--9----------------------------|
|------------------7--8---5---7-----------------------------------------|
|-----------------------------------------------------------------------|

[ Tab from: http://www.guitartabs.cc/tabs/s/stone_sour/blue_study_tab_ver_2.html ]
Heavy Riff/Chorus
|---------------------------------------------------------------------------|
|---------------------------------------------------------------------------|
|---------------------------------------------------------------------------|
|----8-----5-----7-----2---2------------------------------------------------|
|----8-----5-----7-----2---2------------------------------------------------|
|----8-----5-----7-----2---2--2-3-2-0---------------------------------------|
                            pm........


|--------------------------------------------------------------------|
|---~5----~5-----~5------~5------~5------~5--------------------------|
|--------------------------------------------------------------------|
|---~2----~2-----~2------~2------~2------~2--------------------------|
|--------------------------------------------------------------------|
|--------2------2-------2--------2-------2---------------------------|

|------------------------------|  Repeat this at the end
|---5--3--5--3--6--5--3--------| a bunch of times
|---4--2--4--2--5--4--2--------|
|---2--0--2--0--3--2--0--------|
|------------------------------|
|------------------------------|
                Bend this upward and then back down again
|----------------------------------------------------------------------|
|------------------5b-----------5--------------------------------------|
|------------------4b-----------4--------------------------------------|
|---2--2--2--------2b-----------2--------------------------------------|
|---2--2--2---------------------2--------------------------------------|
|---2--2--2---------------------2--------------------------------------|
pm................
Comments